  0
SECTION
  2
HEADER
  9
$ACADVER
  1
AC1009
  9
$INSBASE
 10
0.0
 20
0.0
 30
0.0
  9
$EXTMIN
 10
187.458387
 20
220.027116
 30
-140.940784
  9
$EXTMAX
 10
485.458387
 20
290.027116
 30
157.059216
  9
$LIMMIN
 10
0.0
 20
0.0
  9
$LIMMAX
 10
500.0
 20
500.0
  9
$ORTHOMODE
 70
     0
  9
$REGENMODE
 70
     1
  9
$FILLMODE
 70
     1
  9
$QTEXTMODE
 70
     0
  9
$MIRRTEXT
 70
     1
  9
$DRAGMODE
 70
     2
  9
$LTSCALE
 40
1.0
  9
$OSMODE
 70
    41
  9
$ATTMODE
 70
     1
  9
$TEXTSIZE
 40
2.5
  9
$TRACEWID
 40
1.0
  9
$TEXTSTYLE
  7
STANDARD
  9
$CLAYER
  8
0
  9
$CELTYPE
  6
BYLAYER
  9
$CECOLOR
 62
   256
  9
$DIMSCALE
 40
1.0
  9
$DIMASZ
 40
2.5
  9
$DIMEXO
 40
0.625
  9
$DIMDLI
 40
3.75
  9
$DIMRND
 40
0.0
  9
$DIMDLE
 40
0.0
  9
$DIMEXE
 40
1.25
  9
$DIMTP
 40
0.0
  9
$DIMTM
 40
0.0
  9
$DIMTXT
 40
2.5
  9
$DIMCEN
 40
2.5
  9
$DIMTSZ
 40
0.0
  9
$DIMTOL
 70
     0
  9
$DIMLIM
 70
     0
  9
$DIMTIH
 70
     1
  9
$DIMTOH
 70
     0
  9
$DIMSE1
 70
     0
  9
$DIMSE2
 70
     0
  9
$DIMTAD
 70
     1
  9
$DIMZIN
 70
     8
  9
$DIMBLK
  1

  9
$DIMASO
 70
     1
  9
$DIMSHO
 70
     1
  9
$DIMPOST
  1

  9
$DIMAPOST
  1

  9
$DIMALT
 70
     0
  9
$DIMALTD
 70
     2
  9
$DIMALTF
 40
0.0394
  9
$DIMLFAC
 40
1.0
  9
$DIMTOFL
 70
     1
  9
$DIMTVP
 40
1.0
  9
$DIMTIX
 70
     0
  9
$DIMSOXD
 70
     0
  9
$DIMSAH
 70
     0
  9
$DIMBLK1
  1

  9
$DIMBLK2
  1

  9
$DIMSTYLE
  2
ISO-25
  9
$DIMCLRD
 70
     0
  9
$DIMCLRE
 70
     0
  9
$DIMCLRT
 70
     0
  9
$DIMTFAC
 40
1.0
  9
$DIMGAP
 40
0.625
  9
$LUNITS
 70
     2
  9
$LUPREC
 70
     0
  9
$AXISMODE
 70
     0
  9
$AXISUNIT
 10
0.0
 20
0.0
  9
$SKETCHINC
 40
1.0
  9
$FILLETRAD
 40
5.0
  9
$AUNITS
 70
     0
  9
$AUPREC
 70
     0
  9
$MENU
  1
acad
  9
$ELEVATION
 40
0.0
  9
$PELEVATION
 40
0.0
  9
$THICKNESS
 40
0.0
  9
$LIMCHECK
 70
     0
  9
$BLIPMODE
 70
     1
  9
$CHAMFERA
 40
10.0
  9
$CHAMFERB
 40
10.0
  9
$SKPOLY
 70
     0
  9
$TDCREATE
 40
2451107.964937257
  9
$TDUPDATE
 40
2451175.054780081
  9
$TDINDWG
 40
0.0032432755
  9
$TDUSRTIMER
 40
0.0032317014
  9
$USRTIMER
 70
     1
  9
$ANGBASE
 50
0.0
  9
$ANGDIR
 70
     0
  9
$PDMODE
 70
    35
  9
$PDSIZE
 40
-3.0
  9
$PLINEWID
 40
0.0
  9
$COORDS
 70
     1
  9
$SPLFRAME
 70
     0
  9
$SPLINETYPE
 70
     6
  9
$SPLINESEGS
 70
     8
  9
$ATTDIA
 70
     0
  9
$ATTREQ
 70
     1
  9
$HANDLING
 70
     1
  9
$HANDSEED
  5
7D8
  9
$SURFTAB1
 70
    36
  9
$SURFTAB2
 70
     2
  9
$SURFTYPE
 70
     6
  9
$SURFU
 70
     6
  9
$SURFV
 70
     6
  9
$UCSNAME
  2

  9
$UCSORG
 10
0.0
 20
0.0
 30
0.0
  9
$UCSXDIR
 10
1.0
 20
0.0
 30
0.0
  9
$UCSYDIR
 10
0.0
 20
1.0
 30
0.0
  9
$PUCSNAME
  2

  9
$PUCSORG
 10
0.0
 20
0.0
 30
0.0
  9
$PUCSXDIR
 10
1.0
 20
0.0
 30
0.0
  9
$PUCSYDIR
 10
0.0
 20
1.0
 30
0.0
  9
$USERI1
 70
     0
  9
$USERI2
 70
     0
  9
$USERI3
 70
     0
  9
$USERI4
 70
     0
  9
$USERI5
 70
     0
  9
$USERR1
 40
0.0
  9
$USERR2
 40
0.0
  9
$USERR3
 40
0.0
  9
$USERR4
 40
0.0
  9
$USERR5
 40
0.0
  9
$WORLDVIEW
 70
     1
  9
$SHADEDGE
 70
     3
  9
$SHADEDIF
 70
    70
  9
$TILEMODE
 70
     1
  9
$MAXACTVP
 70
    16
  9
$PINSBASE
 10
0.0
 20
0.0
 30
0.0
  9
$PLIMCHECK
 70
     0
  9
$PEXTMIN
 10
1.000000E+20
 20
1.000000E+20
 30
1.000000E+20
  9
$PEXTMAX
 10
-1.000000E+20
 20
-1.000000E+20
 30
-1.000000E+20
  9
$PLIMMIN
 10
0.0
 20
0.0
  9
$PLIMMAX
 10
420.0
 20
297.0
  9
$UNITMODE
 70
     0
  9
$VISRETAIN
 70
     0
  9
$PLINEGEN
 70
     0
  9
$PSLTSCALE
 70
     1
  9
$TREEDEPTH
 70
  3020
  9
$DWGCODEPAGE
  3
dos850
  0
ENDSEC
  0
SECTION
  2
TABLES
  0
TABLE
  2
VPORT
 70
     1
  0
VPORT
  2
*ACTIVE
 70
     0
 10
0.0
 20
0.0
 11
1.0
 21
1.0
 12
60.921297
 22
263.471926
 13
0.0
 23
0.0
 14
10.0
 24
10.0
 15
10.0
 25
10.0
 16
-1.0
 26
-1.0
 36
1.0
 17
0.0
 27
0.0
 37
0.0
 40
310.484432
 41
1.357349
 42
50.0
 43
0.0
 44
0.0
 50
0.0
 51
0.0
 71
     0
 72
   100
 73
     1
 74
     1
 75
     0
 76
     0
 77
     0
 78
     0
  0
ENDTAB
  0
TABLE
  2
LTYPE
 70
     1
  0
LTYPE
  2
CONTINUOUS
 70
    64
  3
Solid line
 72
    65
 73
     0
 40
0.0
  0
ENDTAB
  0
TABLE
  2
LAYER
 70
     5
  0
LAYER
  2
0
 70
     0
 62
     7
  6
CONTINUOUS
  0
LAYER
  2
I-C1
 70
    64
 62
     7
  6
CONTINUOUS
  0
LAYER
  2
I-C2
 70
    64
 62
   180
  6
CONTINUOUS
  0
LAYER
  2
I-C3
 70
    64
 62
    50
  6
CONTINUOUS
  0
LAYER
  2
I-C-GLASS
 70
    64
 62
   254
  6
CONTINUOUS
  0
ENDTAB
  0
TABLE
  2
STYLE
 70
     1
  0
STYLE
  2
STANDARD
 70
    64
 40
0.0
 41
1.0
 50
0.0
 71
     0
 42
2.5
  3
ISOCP
  4

  0
ENDTAB
  0
TABLE
  2
VIEW
 70
     0
  0
ENDTAB
  0
TABLE
  2
UCS
 70
     0
  0
ENDTAB
  0
TABLE
  2
APPID
 70
     1
  0
APPID
  2
ACAD
 70
     0
  0
ENDTAB
  0
TABLE
  2
DIMSTYLE
 70
     8
  0
DIMSTYLE
  2
STANDARD
 70
     0
  3

  4

  5

  6

  7

 40
1.0
 41
0.18
 42
0.0625
 43
0.38
 44
0.18
 45
0.0
 46
0.0
 47
0.0
 48
0.0
140
0.18
141
0.09
142
0.0
143
25.4
144
1.0
145
0.0
146
1.0
147
0.09
 71
     0
 72
     0
 73
     1
 74
     1
 75
     0
 76
     0
 77
     0
 78
     0
170
     0
171
     2
172
     0
173
     0
174
     0
175
     0
176
     0
177
     0
178
     0
  0
DIMSTYLE
  2
ISO-25
 70
     0
  3

  4

  5

  6

  7

 40
1.0
 41
2.5
 42
0.625
 43
3.75
 44
1.25
 45
0.0
 46
0.0
 47
0.0
 48
0.0
140
2.5
141
2.5
142
0.0
143
0.0394
144
1.0
145
1.0
146
1.0
147
0.625
 71
     0
 72
     0
 73
     1
 74
     0
 75
     0
 76
     0
 77
     1
 78
     8
170
     0
171
     2
172
     1
173
     0
174
     0
175
     0
176
     0
177
     0
178
     0
  0
DIMSTYLE
  2
ISO-35
 70
     0
  3

  4

  5

  6

  7

 40
1.0
 41
3.5
 42
0.875
 43
5.25
 44
1.75
 45
0.0
 46
0.0
 47
0.0
 48
0.0
140
3.5
141
3.5
142
0.0
143
0.0394
144
1.0
145
1.4
146
1.0
147
0.875
 71
     0
 72
     0
 73
     1
 74
     0
 75
     0
 76
     0
 77
     1
 78
     8
170
     0
171
     2
172
     1
173
     0
174
     0
175
     0
176
     0
177
     0
178
     0
  0
DIMSTYLE
  2
ISO-5
 70
     0
  3

  4

  5

  6

  7

 40
1.0
 41
5.0
 42
1.25
 43
7.5
 44
2.5
 45
0.0
 46
0.0
 47
0.0
 48
0.0
140
5.0
141
5.0
142
0.0
143
0.0394
144
1.0
145
2.0
146
1.0
147
1.25
 71
     0
 72
     0
 73
     1
 74
     0
 75
     0
 76
     0
 77
     1
 78
     8
170
     0
171
     2
172
     1
173
     0
174
     0
175
     0
176
     0
177
     0
178
     0
  0
DIMSTYLE
  2
ISO-7
 70
     0
  3

  4

  5

  6

  7

 40
1.0
 41
7.0
 42
1.75
 43
10.5
 44
3.5
 45
0.0
 46
0.0
 47
0.0
 48
0.0
140
7.0
141
7.0
142
0.0
143
0.0394
144
1.0
145
2.8
146
1.0
147
1.75
 71
     0
 72
     0
 73
     1
 74
     0
 75
     0
 76
     0
 77
     1
 78
     8
170
     0
171
     2
172
     1
173
     0
174
     0
175
     0
176
     0
177
     0
178
     0
  0
DIMSTYLE
  2
ISO1
 70
     0
  3

  4

  5

  6

  7

 40
1.0
 41
10.0
 42
2.5
 43
15.0
 44
5.0
 45
0.0
 46
0.0
 47
0.0
 48
0.0
140
10.0
141
10.0
142
0.0
143
0.0394
144
1.0
145
4.0
146
1.0
147
2.5
 71
     0
 72
     0
 73
     1
 74
     0
 75
     0
 76
     0
 77
     1
 78
     8
170
     0
171
     2
172
     1
173
     0
174
     0
175
     0
176
     0
177
     0
178
     0
  0
DIMSTYLE
  2
ISO1-4
 70
     0
  3

  4

  5

  6

  7

 40
1.0
 41
14.0
 42
3.5
 43
21.0
 44
7.0
 45
0.0
 46
0.0
 47
0.0
 48
0.0
140
14.0
141
14.0
142
0.0
143
0.0394
144
1.0
145
5.6
146
1.0
147
3.5
 71
     0
 72
     0
 73
     1
 74
     0
 75
     0
 76
     0
 77
     1
 78
     8
170
     0
171
     2
172
     1
173
     0
174
     0
175
     0
176
     0
177
     0
178
     0
  0
DIMSTYLE
  2
ISO2
 70
     0
  3

  4

  5

  6

  7

 40
1.0
 41
20.0
 42
5.0
 43
30.0
 44
10.0
 45
0.0
 46
0.0
 47
0.0
 48
0.0
140
20.0
141
20.0
142
0.0
143
0.0394
144
1.0
145
8.0
146
1.0
147
5.0
 71
     0
 72
     0
 73
     1
 74
     0
 75
     0
 76
     0
 77
     1
 78
     8
170
     0
171
     2
172
     1
173
     0
174
     0
175
     0
176
     0
177
     0
178
     0
  0
ENDTAB
  0
ENDSEC
  0
SECTION
  2
BLOCKS
  0
ENDSEC
  0
SECTION
  2
ENTITIES
  0
VIEWPORT
  8
0
  5
22
 67
     1
 68
     1
 10
261.517699
 20
148.5
 30
0.0
 40
523.035398
 41
297.0
 69
     1
1001
ACAD
1000
MVIEW
1002
{
1070
    16
1010
0.0
1020
0.0
1030
0.0
1010
0.0
1020
0.0
1030
1.0
1040
0.0
1040
297.0
1040
261.517699
1040
148.5
1040
50.0
1040
0.0
1040
0.0
1070
     0
1070
   100
1070
     1
1070
     1
1070
     0
1070
     0
1070
     0
1070
     0
1040
0.0
1040
0.0
1040
0.0
1040
1.0
1040
1.0
1040
10.0
1040
10.0
1070
     0
1002
{
1002
}
1002
}
  0
ARC
  8
I-C1
  5
30
 10
336.458387
 20
8.059216
 30
-250.027116
 40
100.0
 50
270.0
 51
90.0
210
0.0
220
-1.0
230
0.0
  0
ARC
  8
I-C2
  5
38
 10
336.458387
 20
96.059216
 30
-247.027116
 40
7.0
 50
270.0
 51
90.0
210
0.0
220
-1.0
230
0.0
  0
ARC
  8
I-C2
  5
3A
 10
336.458387
 20
96.059216
 30
-247.027116
 40
7.0
 50
90.0
 51
270.0
210
0.0
220
-1.0
230
0.0
  0
POLYLINE
  8
I-C2
  5
3C
 66
     1
 10
0.0
 20
0.0
 30
0.0
 70
    16
 71
     2
 72
    11
  0
VERTEX
  8
I-C2
  5
3D
 10
336.458387
 20
247.027116
 30
103.059216
 70
    64
  0
VERTEX
  8
I-C2
  5
3E
 10
338.621506
 20
247.027116
 30
102.716611
 70
    64
  0
VERTEX
  8
I-C2
  5
3F
 10
340.572884
 20
247.027116
 30
101.722335
 70
    64
  0
VERTEX
  8
I-C2
  5
40
 10
342.121506
 20
247.027116
 30
100.173713
 70
    64
  0
VERTEX
  8
I-C2
  5
41
 10
343.115783
 20
247.027116
 30
98.222335
 70
    64
  0
VERTEX
  8
I-C2
  5
42
 10
343.458387
 20
247.027116
 30
96.059216
 70
    64
  0
VERTEX
  8
I-C2
  5
43
 10
343.115783
 20
247.027116
 30
93.896097
 70
    64
  0
VERTEX
  8
I-C2
  5
44
 10
342.121506
 20
247.027116
 30
91.944719
 70
    64
  0
VERTEX
  8
I-C2
  5
45
 10
340.572884
 20
247.027116
 30
90.396097
 70
    64
  0
VERTEX
  8
I-C2
  5
46
 10
338.621506
 20
247.027116
 30
89.40182
 70
    64
  0
VERTEX
  8
I-C2
  5
47
 10
336.458387
 20
247.027116
 30
89.059216
 70
    64
  0
VERTEX
  8
I-C2
  5
48
 10
336.458387
 20
247.027116
 30
103.059216
 70
    64
  0
VERTEX
  8
I-C2
  5
49
 10
334.295268
 20
247.027116
 30
102.716611
 70
    64
  0
VERTEX
  8
I-C2
  5
4A
 10
332.34389
 20
247.027116
 30
101.722335
 70
    64
  0
VERTEX
  8
I-C2
  5
4B
 10
330.795268
 20
247.027116
 30
100.173713
 70
    64
  0
VERTEX
  8
I-C2
  5
4C
 10
329.800992
 20
247.027116
 30
98.222335
 70
    64
  0
VERTEX
  8
I-C2
  5
4D
 10
329.458387
 20
247.027116
 30
96.059216
 70
    64
  0
VERTEX
  8
I-C2
  5
4E
 10
329.800992
 20
247.027116
 30
93.896097
 70
    64
  0
VERTEX
  8
I-C2
  5
4F
 10
330.795268
 20
247.027116
 30
91.944719
 70
    64
  0
VERTEX
  8
I-C2
  5
50
 10
332.34389
 20
247.027116
 30
90.396097
 70
    64
  0
VERTEX
  8
I-C2
  5
51
 10
334.295268
 20
247.027116
 30
89.40182
 70
    64
  0
VERTEX
  8
I-C2
  5
52
 10
336.458387
 20
247.027116
 30
89.059216
 70
    64
  0
SEQEND
  8
I-C2
  5
53
  0
POLYLINE
  8
I-C2
  5
6C
 66
     1
 10
0.0
 20
0.0
 30
0.0
 70
    16
 71
     2
 72
    11
  0
VERTEX
  8
I-C2
  5
6D
 10
241.458387
 20
247.027116
 30
8.059216
 70
    64
  0
VERTEX
  8
I-C2
  5
6E
 10
241.800992
 20
247.027116
 30
10.222335
 70
    64
  0
VERTEX
  8
I-C2
  5
6F
 10
242.795268
 20
247.027116
 30
12.173713
 70
    64
  0
VERTEX
  8
I-C2
  5
70
 10
244.34389
 20
247.027116
 30
13.722335
 70
    64
  0
VERTEX
  8
I-C2
  5
71
 10
246.295268
 20
247.027116
 30
14.716611
 70
    64
  0
VERTEX
  8
I-C2
  5
72
 10
248.458387
 20
247.027116
 30
15.059216
 70
    64
  0
VERTEX
  8
I-C2
  5
73
 10
250.621506
 20
247.027116
 30
14.716611
 70
    64
  0
VERTEX
  8
I-C2
  5
74
 10
252.572884
 20
247.027116
 30
13.722335
 70
    64
  0
VERTEX
  8
I-C2
  5
75
 10
254.121506
 20
247.027116
 30
12.173713
 70
    64
  0
VERTEX
  8
I-C2
  5
76
 10
255.115783
 20
247.027116
 30
10.222335
 70
    64
  0
VERTEX
  8
I-C2
  5
77
 10
255.458387
 20
247.027116
 30
8.059216
 70
    64
  0
VERTEX
  8
I-C2
  5
78
 10
241.458387
 20
247.027116
 30
8.059216
 70
    64
  0
VERTEX
  8
I-C2
  5
79
 10
241.800992
 20
247.027116
 30
5.896097
 70
    64
  0
VERTEX
  8
I-C2
  5
7A
 10
242.795268
 20
247.027116
 30
3.944719
 70
    64
  0
VERTEX
  8
I-C2
  5
7B
 10
244.34389
 20
247.027116
 30
2.396097
 70
    64
  0
VERTEX
  8
I-C2
  5
7C
 10
246.295268
 20
247.027116
 30
1.40182
 70
    64
  0
VERTEX
  8
I-C2
  5
7D
 10
248.458387
 20
247.027116
 30
1.059216
 70
    64
  0
VERTEX
  8
I-C2
  5
7E
 10
250.621506
 20
247.027116
 30
1.40182
 70
    64
  0
VERTEX
  8
I-C2
  5
7F
 10
252.572884
 20
247.027116
 30
2.396097
 70
    64
  0
VERTEX
  8
I-C2
  5
80
 10
254.121506
 20
247.027116
 30
3.944719
 70
    64
  0
VERTEX
  8
I-C2
  5
81
 10
255.115783
 20
247.027116
 30
5.896097
 70
    64
  0
VERTEX
  8
I-C2
  5
82
 10
255.458387
 20
247.027116
 30
8.059216
 70
    64
  0
SEQEND
  8
I-C2
  5
83
  0
POLYLINE
  8
I-C2
  5
84
 66
     1
 10
0.0
 20
0.0
 30
0.0
 70
    16
 71
     2
 72
    11
  0
VERTEX
  8
I-C2
  5
85
 10
336.458387
 20
247.027116
 30
-86.940784
 70
    64
  0
VERTEX
  8
I-C2
  5
86
 10
334.295268
 20
247.027116
 30
-86.59818
 70
    64
  0
VERTEX
  8
I-C2
  5
87
 10
332.34389
 20
247.027116
 30
-85.603903
 70
    64
  0
VERTEX
  8
I-C2
  5
88
 10
330.795268
 20
247.027116
 30
-84.055281
 70
    64
  0
VERTEX
  8
I-C2
  5
89
 10
329.800992
 20
247.027116
 30
-82.103903
 70
    64
  0
VERTEX
  8
I-C2
  5
8A
 10
329.458387
 20
247.027116
 30
-79.940784
 70
    64
  0
VERTEX
  8
I-C2
  5
8B
 10
329.800992
 20
247.027116
 30
-77.777665
 70
    64
  0
VERTEX
  8
I-C2
  5
8C
 10
330.795268
 20
247.027116
 30
-75.826287
 70
    64
  0
VERTEX
  8
I-C2
  5
8D
 10
332.34389
 20
247.027116
 30
-74.277665
 70
    64
  0
VERTEX
  8
I-C2
  5
8E
 10
334.295268
 20
247.027116
 30
-73.283389
 70
    64
  0
VERTEX
  8
I-C2
  5
8F
 10
336.458387
 20
247.027116
 30
-72.940784
 70
    64
  0
VERTEX
  8
I-C2
  5
90
 10
336.458387
 20
247.027116
 30
-86.940784
 70
    64
  0
VERTEX
  8
I-C2
  5
91
 10
338.621506
 20
247.027116
 30
-86.59818
 70
    64
  0
VERTEX
  8
I-C2
  5
92
 10
340.572884
 20
247.027116
 30
-85.603903
 70
    64
  0
VERTEX
  8
I-C2
  5
93
 10
342.121506
 20
247.027116
 30
-84.055281
 70
    64
  0
VERTEX
  8
I-C2
  5
94
 10
343.115783
 20
247.027116
 30
-82.103903
 70
    64
  0
VERTEX
  8
I-C2
  5
95
 10
343.458387
 20
247.027116
 30
-79.940784
 70
    64
  0
VERTEX
  8
I-C2
  5
96
 10
343.115783
 20
247.027116
 30
-77.777665
 70
    64
  0
VERTEX
  8
I-C2
  5
97
 10
342.121506
 20
247.027116
 30
-75.826287
 70
    64
  0
VERTEX
  8
I-C2
  5
98
 10
340.572884
 20
247.027116
 30
-74.277665
 70
    64
  0
VERTEX
  8
I-C2
  5
99
 10
338.621506
 20
247.027116
 30
-73.283389
 70
    64
  0
VERTEX
  8
I-C2
  5
9A
 10
336.458387
 20
247.027116
 30
-72.940784
 70
    64
  0
SEQEND
  8
I-C2
  5
9B
  0
POLYLINE
  8
I-C2
  5
9C
 66
     1
 10
0.0
 20
0.0
 30
0.0
 70
    16
 71
     2
 72
    11
  0
VERTEX
  8
I-C2
  5
9D
 10
431.458387
 20
247.027116
 30
8.059216
 70
    64
  0
VERTEX
  8
I-C2
  5
9E
 10
431.115783
 20
247.027116
 30
5.896097
 70
    64
  0
VERTEX
  8
I-C2
  5
9F
 10
430.121506
 20
247.027116
 30
3.944719
 70
    64
  0
VERTEX
  8
I-C2
  5
A0
 10
428.572884
 20
247.027116
 30
2.396097
 70
    64
  0
VERTEX
  8
I-C2
  5
A1
 10
426.621506
 20
247.027116
 30
1.40182
 70
    64
  0
VERTEX
  8
I-C2
  5
A2
 10
424.458387
 20
247.027116
 30
1.059216
 70
    64
  0
VERTEX
  8
I-C2
  5
A3
 10
422.295268
 20
247.027116
 30
1.40182
 70
    64
  0
VERTEX
  8
I-C2
  5
A4
 10
420.34389
 20
247.027116
 30
2.396097
 70
    64
  0
VERTEX
  8
I-C2
  5
A5
 10
418.795268
 20
247.027116
 30
3.944719
 70
    64
  0
VERTEX
  8
I-C2
  5
A6
 10
417.800992
 20
247.027116
 30
5.896097
 70
    64
  0
VERTEX
  8
I-C2
  5
A7
 10
417.458387
 20
247.027116
 30
8.059216
 70
    64
  0
VERTEX
  8
I-C2
  5
A8
 10
431.458387
 20
247.027116
 30
8.059216
 70
    64
  0
VERTEX
  8
I-C2
  5
A9
 10
431.115783
 20
247.027116
 30
10.222335
 70
    64
  0
VERTEX
  8
I-C2
  5
AA
 10
430.121506
 20
247.027116
 30
12.173713
 70
    64
  0
VERTEX
  8
I-C2
  5
AB
 10
428.572884
 20
247.027116
 30
13.722335
 70
    64
  0
VERTEX
  8
I-C2
  5
AC
 10
426.621506
 20
247.027116
 30
14.716611
 70
    64
  0
VERTEX
  8
I-C2
  5
AD
 10
424.458387
 20
247.027116
 30
15.059216
 70
    64
  0
VERTEX
  8
I-C2
  5
AE
 10
422.295268
 20
247.027116
 30
14.716611
 70
    64
  0
VERTEX
  8
I-C2
  5
AF
 10
420.34389
 20
247.027116
 30
13.722335
 70
    64
  0
VERTEX
  8
I-C2
  5
B0
 10
418.795268
 20
247.027116
 30
12.173713
 70
    64
  0
VERTEX
  8
I-C2
  5
B1
 10
417.800992
 20
247.027116
 30
10.222335
 70
    64
  0
VERTEX
  8
I-C2
  5
B2
 10
417.458387
 20
247.027116
 30
8.059216
 70
    64
  0
SEQEND
  8
I-C2
  5
B3
  0
POLYLINE
  8
I-C2
  5
B4
 66
     1
 10
0.0
 20
0.0
 30
0.0
 70
    16
 71
     2
 72
    11
  0
VERTEX
  8
I-C2
  5
B5
 10
290.958387
 20
247.027116
 30
86.867528
 70
    64
  0
VERTEX
  8
I-C2
  5
B6
 10
291.834652
 20
247.027116
 30
87.203894
 70
    64
  0
VERTEX
  8
I-C2
  5
B7
 10
292.771973
 20
247.027116
 30
87.253017
 70
    64
  0
VERTEX
  8
I-C2
  5
B8
 10
293.678597
 20
247.027116
 30
87.010088
 70
    64
  0
VERTEX
  8
I-C2
  5
B9
 10
294.465779
 20
247.027116
 30
86.498886
 70
    64
  0
VERTEX
  8
I-C2
  5
BA
 10
295.056463
 20
247.027116
 30
85.769451
 70
    64
  0
VERTEX
  8
I-C2
  5
BB
 10
295.39283
 20
247.027116
 30
84.893186
 70
    64
  0
VERTEX
  8
I-C2
  5
BC
 10
295.441953
 20
247.027116
 30
83.955866
 70
    64
  0
VERTEX
  8
I-C2
  5
BD
 10
295.199024
 20
247.027116
 30
83.049241
 70
    64
  0
VERTEX
  8
I-C2
  5
BE
 10
294.687822
 20
247.027116
 30
82.26206
 70
    64
  0
VERTEX
  8
I-C2
  5
BF
 10
293.958387
 20
247.027116
 30
81.671375
 70
    64
  0
VERTEX
  8
I-C2
  5
C0
 10
290.958387
 20
247.027116
 30
86.867528
 70
    64
  0
VERTEX
  8
I-C2
  5
C1
 10
290.228953
 20
247.027116
 30
86.276843
 70
    64
  0
VERTEX
  8
I-C2
  5
C2
 10
289.717751
 20
247.027116
 30
85.489661
 70
    64
  0
VERTEX
  8
I-C2
  5
C3
 10
289.474821
 20
247.027116
 30
84.583037
 70
    64
  0
VERTEX
  8
I-C2
  5
C4
 10
289.523944
 20
247.027116
 30
83.645716
 70
    64
  0
VERTEX
  8
I-C2
  5
C5
 10
289.860311
 20
247.027116
 30
82.769451
 70
    64
  0
VERTEX
  8
I-C2
  5
C6
 10
290.450995
 20
247.027116
 30
82.040017
 70
    64
  0
VERTEX
  8
I-C2
  5
C7
 10
291.238177
 20
247.027116
 30
81.528815
 70
    64
  0
VERTEX
  8
I-C2
  5
C8
 10
292.144802
 20
247.027116
 30
81.285886
 70
    64
  0
VERTEX
  8
I-C2
  5
C9
 10
293.082122
 20
247.027116
 30
81.335009
 70
    64
  0
VERTEX
  8
I-C2
  5
CA
 10
293.958387
 20
247.027116
 30
81.671375
 70
    64
  0
SEQEND
  8
I-C2
  5
CB
  0
ARC
  8
I-C2
  5
CC
 10
292.458387
 20
84.269451
 30
-247.027116
 40
3.0
 50
120.0
 51
300.0
210
0.0
220
-1.0
230
0.0
  0
ARC
  8
I-C2
  5
CD
 10
292.458387
 20
84.269451
 30
-247.027116
 40
3.0
 50
300.0
 51
120.0
210
0.0
220
-1.0
230
0.0
  0
POLYLINE
  8
I-C2
  5
CE
 66
     1
 10
0.0
 20
0.0
 30
0.0
 70
    16
 71
     2
 72
    11
  0
VERTEX
  8
I-C2
  5
CF
 10
257.650075
 20
247.027116
 30
53.559216
 70
    64
  0
VERTEX
  8
I-C2
  5
D0
 10
258.24076
 20
247.027116
 30
54.28865
 70
    64
  0
VERTEX
  8
I-C2
  5
D1
 10
259.027942
 20
247.027116
 30
54.799852
 70
    64
  0
VERTEX
  8
I-C2
  5
D2
 10
259.934566
 20
247.027116
 30
55.042782
 70
    64
  0
VERTEX
  8
I-C2
  5
D3
 10
260.871887
 20
247.027116
 30
54.993659
 70
    64
  0
VERTEX
  8
I-C2
  5
D4
 10
261.748152
 20
247.027116
 30
54.657292
 70
    64
  0
VERTEX
  8
I-C2
  5
D5
 10
262.477586
 20
247.027116
 30
54.066608
 70
    64
  0
VERTEX
  8
I-C2
  5
D6
 10
262.988788
 20
247.027116
 30
53.279426
 70
    64
  0
VERTEX
  8
I-C2
  5
D7
 10
263.231717
 20
247.027116
 30
52.372801
 70
    64
  0
VERTEX
  8
I-C2
  5
D8
 10
263.182594
 20
247.027116
 30
51.435481
 70
    64
  0
VERTEX
  8
I-C2
  5
D9
 10
262.846228
 20
247.027116
 30
50.559216
 70
    64
  0
VERTEX
  8
I-C2
  5
DA
 10
257.650075
 20
247.027116
 30
53.559216
 70
    64
  0
VERTEX
  8
I-C2
  5
DB
 10
257.313709
 20
247.027116
 30
52.682951
 70
    64
  0
VERTEX
  8
I-C2
  5
DC
 10
257.264586
 20
247.027116
 30
51.74563
 70
    64
  0
VERTEX
  8
I-C2
  5
DD
 10
257.507515
 20
247.027116
 30
50.839006
 70
    64
  0
VERTEX
  8
I-C2
  5
DE
 10
258.018717
 20
247.027116
 30
50.051824
 70
    64
  0
VERTEX
  8
I-C2
  5
DF
 10
258.748152
 20
247.027116
 30
49.46114
 70
    64
  0
VERTEX
  8
I-C2
  5
E0
 10
259.624417
 20
247.027116
 30
49.124773
 70
    64
  0
VERTEX
  8
I-C2
  5
E1
 10
260.561737
 20
247.027116
 30
49.07565
 70
    64
  0
VERTEX
  8
I-C2
  5
E2
 10
261.468362
 20
247.027116
 30
49.318579
 70
    64
  0
VERTEX
  8
I-C2
  5
E3
 10
262.255543
 20
247.027116
 30
49.829781
 70
    64
  0
VERTEX
  8
I-C2
  5
E4
 10
262.846228
 20
247.027116
 30
50.559216
 70
    64
  0
SEQEND
  8
I-C2
  5
E5
  0
ARC
  8
I-C2
  5
E6
 10
260.248152
 20
52.059216
 30
-247.027116
 40
3.0
 50
150.0
 51
330.0
210
0.0
220
-1.0
230
0.0
  0
ARC
  8
I-C2
  5
E7
 10
260.248152
 20
52.059216
 30
-247.027116
 40
3.0
 50
330.0
 51
150.0
210
0.0
220
-1.0
230
0.0
  0
POLYLINE
  8
I-C2
  5
102
 66
     1
 10
0.0
 20
0.0
 30
0.0
 70
    16
 71
     2
 72
    11
  0
VERTEX
  8
I-C2
  5
103
 10
257.650075
 20
247.027116
 30
-37.440784
 70
    64
  0
VERTEX
  8
I-C2
  5
104
 10
257.313709
 20
247.027116
 30
-36.564519
 70
    64
  0
VERTEX
  8
I-C2
  5
105
 10
257.264586
 20
247.027116
 30
-35.627199
 70
    64
  0
VERTEX
  8
I-C2
  5
106
 10
257.507515
 20
247.027116
 30
-34.720574
 70
    64
  0
VERTEX
  8
I-C2
  5
107
 10
258.018717
 20
247.027116
 30
-33.933392
 70
    64
  0
VERTEX
  8
I-C2
  5
108
 10
258.748152
 20
247.027116
 30
-33.342708
 70
    64
  0
VERTEX
  8
I-C2
  5
109
 10
259.624417
 20
247.027116
 30
-33.006341
 70
    64
  0
VERTEX
  8
I-C2
  5
10A
 10
260.561737
 20
247.027116
 30
-32.957218
 70
    64
  0
VERTEX
  8
I-C2
  5
10B
 10
261.468362
 20
247.027116
 30
-33.200148
 70
    64
  0
VERTEX
  8
I-C2
  5
10C
 10
262.255543
 20
247.027116
 30
-33.71135
 70
    64
  0
VERTEX
  8
I-C2
  5
10D
 10
262.846228
 20
247.027116
 30
-34.440784
 70
    64
  0
VERTEX
  8
I-C2
  5
10E
 10
257.650075
 20
247.027116
 30
-37.440784
 70
    64
  0
VERTEX
  8
I-C2
  5
10F
 10
258.24076
 20
247.027116
 30
-38.170219
 70
    64
  0
VERTEX
  8
I-C2
  5
110
 10
259.027942
 20
247.027116
 30
-38.681421
 70
    64
  0
VERTEX
  8
I-C2
  5
111
 10
259.934566
 20
247.027116
 30
-38.92435
 70
    64
  0
VERTEX
  8
I-C2
  5
112
 10
260.871887
 20
247.027116
 30
-38.875227
 70
    64
  0
VERTEX
  8
I-C2
  5
113
 10
261.748152
 20
247.027116
 30
-38.53886
 70
    64
  0
VERTEX
  8
I-C2
  5
114
 10
262.477586
 20
247.027116
 30
-37.948176
 70
    64
  0
VERTEX
  8
I-C2
  5
115
 10
262.988788
 20
247.027116
 30
-37.160994
 70
    64
  0
VERTEX
  8
I-C2
  5
116
 10
263.231717
 20
247.027116
 30
-36.25437
 70
    64
  0
VERTEX
  8
I-C2
  5
117
 10
263.182594
 20
247.027116
 30
-35.317049
 70
    64
  0
VERTEX
  8
I-C2
  5
118
 10
262.846228
 20
247.027116
 30
-34.440784
 70
    64
  0
SEQEND
  8
I-C2
  5
119
  0
ARC
  8
I-C2
  5
11A
 10
260.248152
 20
-35.940784
 30
-247.027116
 40
3.0
 50
210.0
 51
30.0
210
0.0
220
-1.0
230
0.0
  0
ARC
  8
I-C2
  5
11B
 10
260.248152
 20
-35.940784
 30
-247.027116
 40
3.0
 50
30.0
 51
210.0
210
0.0
220
-1.0
230
0.0
  0
POLYLINE
  8
I-C2
  5
11C
 66
     1
 10
0.0
 20
0.0
 30
0.0
 70
    16
 71
     2
 72
    11
  0
VERTEX
  8
I-C2
  5
11D
 10
290.958387
 20
247.027116
 30
-70.749096
 70
    64
  0
VERTEX
  8
I-C2
  5
11E
 10
290.228953
 20
247.027116
 30
-70.158412
 70
    64
  0
VERTEX
  8
I-C2
  5
11F
 10
289.717751
 20
247.027116
 30
-69.37123
 70
    64
  0
VERTEX
  8
I-C2
  5
120
 10
289.474821
 20
247.027116
 30
-68.464605
 70
    64
  0
VERTEX
  8
I-C2
  5
121
 10
289.523944
 20
247.027116
 30
-67.527285
 70
    64
  0
VERTEX
  8
I-C2
  5
122
 10
289.860311
 20
247.027116
 30
-66.65102
 70
    64
  0
VERTEX
  8
I-C2
  5
123
 10
290.450995
 20
247.027116
 30
-65.921585
 70
    64
  0
VERTEX
  8
I-C2
  5
124
 10
291.238177
 20
247.027116
 30
-65.410383
 70
    64
  0
VERTEX
  8
I-C2
  5
125
 10
292.144802
 20
247.027116
 30
-65.167454
 70
    64
  0
VERTEX
  8
I-C2
  5
126
 10
293.082122
 20
247.027116
 30
-65.216577
 70
    64
  0
VERTEX
  8
I-C2
  5
127
 10
293.958387
 20
247.027116
 30
-65.552944
 70
    64
  0
VERTEX
  8
I-C2
  5
128
 10
290.958387
 20
247.027116
 30
-70.749096
 70
    64
  0
VERTEX
  8
I-C2
  5
129
 10
291.834652
 20
247.027116
 30
-71.085463
 70
    64
  0
VERTEX
  8
I-C2
  5
12A
 10
292.771973
 20
247.027116
 30
-71.134585
 70
    64
  0
VERTEX
  8
I-C2
  5
12B
 10
293.678597
 20
247.027116
 30
-70.891656
 70
    64
  0
VERTEX
  8
I-C2
  5
12C
 10
294.465779
 20
247.027116
 30
-70.380454
 70
    64
  0
VERTEX
  8
I-C2
  5
12D
 10
295.056463
 20
247.027116
 30
-69.65102
 70
    64
  0
VERTEX
  8
I-C2
  5
12E
 10
295.39283
 20
247.027116
 30
-68.774755
 70
    64
  0
VERTEX
  8
I-C2
  5
12F
 10
295.441953
 20
247.027116
 30
-67.837434
 70
    64
  0
VERTEX
  8
I-C2
  5
130
 10
295.199024
 20
247.027116
 30
-66.93081
 70
    64
  0
VERTEX
  8
I-C2
  5
131
 10
294.687822
 20
247.027116
 30
-66.143628
 70
    64
  0
VERTEX
  8
I-C2
  5
132
 10
293.958387
 20
247.027116
 30
-65.552944
 70
    64
  0
SEQEND
  8
I-C2
  5
133
  0
ARC
  8
I-C2
  5
134
 10
292.458387
 20
-68.15102
 30
-247.027116
 40
3.0
 50
240.0
 51
60.0
210
0.0
220
-1.0
230
0.0
  0
ARC
  8
I-C2
  5
135
 10
292.458387
 20
-68.15102
 30
-247.027116
 40
3.0
 50
60.0
 51
240.0
210
0.0
220
-1.0
230
0.0
  0
POLYLINE
  8
I-C2
  5
150
 66
     1
 10
0.0
 20
0.0
 30
0.0
 70
    16
 71
     2
 72
    11
  0
VERTEX
  8
I-C2
  5
151
 10
381.958387
 20
247.027116
 30
-70.749096
 70
    64
  0
VERTEX
  8
I-C2
  5
152
 10
381.082122
 20
247.027116
 30
-71.085463
 70
    64
  0
VERTEX
  8
I-C2
  5
153
 10
380.144802
 20
247.027116
 30
-71.134585
 70
    64
  0
VERTEX
  8
I-C2
  5
154
 10
379.238177
 20
247.027116
 30
-70.891656
 70
    64
  0
VERTEX
  8
I-C2
  5
155
 10
378.450995
 20
247.027116
 30
-70.380454
 70
    64
  0
VERTEX
  8
I-C2
  5
156
 10
377.860311
 20
247.027116
 30
-69.65102
 70
    64
  0
VERTEX
  8
I-C2
  5
157
 10
377.523944
 20
247.027116
 30
-68.774755
 70
    64
  0
VERTEX
  8
I-C2
  5
158
 10
377.474821
 20
247.027116
 30
-67.837434
 70
    64
  0
VERTEX
  8
I-C2
  5
159
 10
377.717751
 20
247.027116
 30
-66.93081
 70
    64
  0
VERTEX
  8
I-C2
  5
15A
 10
378.228953
 20
247.027116
 30
-66.143628
 70
    64
  0
VERTEX
  8
I-C2
  5
15B
 10
378.958387
 20
247.027116
 30
-65.552944
 70
    64
  0
VERTEX
  8
I-C2
  5
15C
 10
381.958387
 20
247.027116
 30
-70.749096
 70
    64
  0
VERTEX
  8
I-C2
  5
15D
 10
382.687822
 20
247.027116
 30
-70.158412
 70
    64
  0
VERTEX
  8
I-C2
  5
15E
 10
383.199024
 20
247.027116
 30
-69.37123
 70
    64
  0
VERTEX
  8
I-C2
  5
15F
 10
383.441953
 20
247.027116
 30
-68.464605
 70
    64
  0
VERTEX
  8
I-C2
  5
160
 10
383.39283
 20
247.027116
 30
-67.527285
 70
    64
  0
VERTEX
  8
I-C2
  5
161
 10
383.056463
 20
247.027116
 30
-66.65102
 70
    64
  0
VERTEX
  8
I-C2
  5
162
 10
382.465779
 20
247.027116
 30
-65.921585
 70
    64
  0
VERTEX
  8
I-C2
  5
163
 10
381.678597
 20
247.027116
 30
-65.410383
 70
    64
  0
VERTEX
  8
I-C2
  5
164
 10
380.771973
 20
247.027116
 30
-65.167454
 70
    64
  0
VERTEX
  8
I-C2
  5
165
 10
379.834652
 20
247.027116
 30
-65.216577
 70
    64
  0
VERTEX
  8
I-C2
  5
166
 10
378.958387
 20
247.027116
 30
-65.552944
 70
    64
  0
SEQEND
  8
I-C2
  5
167
  0
ARC
  8
I-C2
  5
168
 10
380.458387
 20
-68.15102
 30
-247.027116
 40
3.0
 50
300.0
 51
120.0
210
0.0
220
-1.0
230
0.0
  0
ARC
  8
I-C2
  5
169
 10
380.458387
 20
-68.15102
 30
-247.027116
 40
3.0
 50
120.0
 51
300.0
210
0.0
220
-1.0
230
0.0
  0
POLYLINE
  8
I-C2
  5
16A
 66
     1
 10
0.0
 20
0.0
 30
0.0
 70
    16
 71
     2
 72
    11
  0
VERTEX
  8
I-C2
  5
16B
 10
415.266699
 20
247.027116
 30
-37.440784
 70
    64
  0
VERTEX
  8
I-C2
  5
16C
 10
414.676014
 20
247.027116
 30
-38.170219
 70
    64
  0
VERTEX
  8
I-C2
  5
16D
 10
413.888833
 20
247.027116
 30
-38.681421
 70
    64
  0
VERTEX
  8
I-C2
  5
16E
 10
412.982208
 20
247.027116
 30
-38.92435
 70
    64
  0
VERTEX
  8
I-C2
  5
16F
 10
412.044888
 20
247.027116
 30
-38.875227
 70
    64
  0
VERTEX
  8
I-C2
  5
170
 10
411.168623
 20
247.027116
 30
-38.53886
 70
    64
  0
VERTEX
  8
I-C2
  5
171
 10
410.439188
 20
247.027116
 30
-37.948176
 70
    64
  0
VERTEX
  8
I-C2
  5
172
 10
409.927986
 20
247.027116
 30
-37.160994
 70
    64
  0
VERTEX
  8
I-C2
  5
173
 10
409.685057
 20
247.027116
 30
-36.25437
 70
    64
  0
VERTEX
  8
I-C2
  5
174
 10
409.73418
 20
247.027116
 30
-35.317049
 70
    64
  0
VERTEX
  8
I-C2
  5
175
 10
410.070546
 20
247.027116
 30
-34.440784
 70
    64
  0
VERTEX
  8
I-C2
  5
176
 10
415.266699
 20
247.027116
 30
-37.440784
 70
    64
  0
VERTEX
  8
I-C2
  5
177
 10
415.603065
 20
247.027116
 30
-36.564519
 70
    64
  0
VERTEX
  8
I-C2
  5
178
 10
415.652188
 20
247.027116
 30
-35.627199
 70
    64
  0
VERTEX
  8
I-C2
  5
179
 10
415.409259
 20
247.027116
 30
-34.720574
 70
    64
  0
VERTEX
  8
I-C2
  5
17A
 10
414.898057
 20
247.027116
 30
-33.933392
 70
    64
  0
VERTEX
  8
I-C2
  5
17B
 10
414.168623
 20
247.027116
 30
-33.342708
 70
    64
  0
VERTEX
  8
I-C2
  5
17C
 10
413.292358
 20
247.027116
 30
-33.006341
 70
    64
  0
VERTEX
  8
I-C2
  5
17D
 10
412.355037
 20
247.027116
 30
-32.957218
 70
    64
  0
VERTEX
  8
I-C2
  5
17E
 10
411.448413
 20
247.027116
 30
-33.200148
 70
    64
  0
VERTEX
  8
I-C2
  5
17F
 10
410.661231
 20
247.027116
 30
-33.71135
 70
    64
  0
VERTEX
  8
I-C2
  5
180
 10
410.070546
 20
247.027116
 30
-34.440784
 70
    64
  0
SEQEND
  8
I-C2
  5
181
  0
ARC
  8
I-C2
  5
182
 10
412.668623
 20
-35.940784
 30
-247.027116
 40
3.0
 50
330.0
 51
150.0
210
0.0
220
-1.0
230
0.0
  0
ARC
  8
I-C2
  5
183
 10
412.668623
 20
-35.940784
 30
-247.027116
 40
3.0
 50
150.0
 51
330.0
210
0.0
220
-1.0
230
0.0
  0
POLYLINE
  8
I-C2
  5
19E
 66
     1
 10
0.0
 20
0.0
 30
0.0
 70
    16
 71
     2
 72
    11
  0
VERTEX
  8
I-C2
  5
19F
 10
415.266699
 20
247.027116
 30
53.559216
 70
    64
  0
VERTEX
  8
I-C2
  5
1A0
 10
415.603065
 20
247.027116
 30
52.682951
 70
    64
  0
VERTEX
  8
I-C2
  5
1A1
 10
415.652188
 20
247.027116
 30
51.74563
 70
    64
  0
VERTEX
  8
I-C2
  5
1A2
 10
415.409259
 20
247.027116
 30
50.839006
 70
    64
  0
VERTEX
  8
I-C2
  5
1A3
 10
414.898057
 20
247.027116
 30
50.051824
 70
    64
  0
VERTEX
  8
I-C2
  5
1A4
 10
414.168623
 20
247.027116
 30
49.46114
 70
    64
  0
VERTEX
  8
I-C2
  5
1A5
 10
413.292358
 20
247.027116
 30
49.124773
 70
    64
  0
VERTEX
  8
I-C2
  5
1A6
 10
412.355037
 20
247.027116
 30
49.07565
 70
    64
  0
VERTEX
  8
I-C2
  5
1A7
 10
411.448413
 20
247.027116
 30
49.318579
 70
    64
  0
VERTEX
  8
I-C2
  5
1A8
 10
410.661231
 20
247.027116
 30
49.829781
 70
    64
  0
VERTEX
  8
I-C2
  5
1A9
 10
410.070546
 20
247.027116
 30
50.559216
 70
    64
  0
VERTEX
  8
I-C2
  5
1AA
 10
415.266699
 20
247.027116
 30
53.559216
 70
    64
  0
VERTEX
  8
I-C2
  5
1AB
 10
414.676014
 20
247.027116
 30
54.28865
 70
    64
  0
VERTEX
  8
I-C2
  5
1AC
 10
413.888833
 20
247.027116
 30
54.799852
 70
    64
  0
VERTEX
  8
I-C2
  5
1AD
 10
412.982208
 20
247.027116
 30
55.042782
 70
    64
  0
VERTEX
  8
I-C2
  5
1AE
 10
412.044888
 20
247.027116
 30
54.993659
 70
    64
  0
VERTEX
  8
I-C2
  5
1AF
 10
411.168623
 20
247.027116
 30
54.657292
 70
    64
  0
VERTEX
  8
I-C2
  5
1B0
 10
410.439188
 20
247.027116
 30
54.066608
 70
    64
  0
VERTEX
  8
I-C2
  5
1B1
 10
409.927986
 20
247.027116
 30
53.279426
 70
    64
  0
VERTEX
  8
I-C2
  5
1B2
 10
409.685057
 20
247.027116
 30
52.372801
 70
    64
  0
VERTEX
  8
I-C2
  5
1B3
 10
409.73418
 20
247.027116
 30
51.435481
 70
    64
  0
VERTEX
  8
I-C2
  5
1B4
 10
410.070546
 20
247.027116
 30
50.559216
 70
    64
  0
SEQEND
  8
I-C2
  5
1B5
  0
ARC
  8
I-C2
  5
1B6
 10
412.668623
 20
52.059216
 30
-247.027116
 40
3.0
 50
30.0
 51
210.0
210
0.0
220
-1.0
230
0.0
  0
ARC
  8
I-C2
  5
1B7
 10
412.668623
 20
52.059216
 30
-247.027116
 40
3.0
 50
210.0
 51
30.0
210
0.0
220
-1.0
230
0.0
  0
POLYLINE
  8
I-C2
  5
1B8
 66
     1
 10
0.0
 20
0.0
 30
0.0
 70
    16
 71
     2
 72
    11
  0
VERTEX
  8
I-C2
  5
1B9
 10
381.958387
 20
247.027116
 30
86.867528
 70
    64
  0
VERTEX
  8
I-C2
  5
1BA
 10
382.687822
 20
247.027116
 30
86.276843
 70
    64
  0
VERTEX
  8
I-C2
  5
1BB
 10
383.199024
 20
247.027116
 30
85.489661
 70
    64
  0
VERTEX
  8
I-C2
  5
1BC
 10
383.441953
 20
247.027116
 30
84.583037
 70
    64
  0
VERTEX
  8
I-C2
  5
1BD
 10
383.39283
 20
247.027116
 30
83.645716
 70
    64
  0
VERTEX
  8
I-C2
  5
1BE
 10
383.056463
 20
247.027116
 30
82.769451
 70
    64
  0
VERTEX
  8
I-C2
  5
1BF
 10
382.465779
 20
247.027116
 30
82.040017
 70
    64
  0
VERTEX
  8
I-C2
  5
1C0
 10
381.678597
 20
247.027116
 30
81.528815
 70
    64
  0
VERTEX
  8
I-C2
  5
1C1
 10
380.771973
 20
247.027116
 30
81.285886
 70
    64
  0
VERTEX
  8
I-C2
  5
1C2
 10
379.834652
 20
247.027116
 30
81.335009
 70
    64
  0
VERTEX
  8
I-C2
  5
1C3
 10
378.958387
 20
247.027116
 30
81.671375
 70
    64
  0
VERTEX
  8
I-C2
  5
1C4
 10
381.958387
 20
247.027116
 30
86.867528
 70
    64
  0
VERTEX
  8
I-C2
  5
1C5
 10
381.082122
 20
247.027116
 30
87.203894
 70
    64
  0
VERTEX
  8
I-C2
  5
1C6
 10
380.144802
 20
247.027116
 30
87.253017
 70
    64
  0
VERTEX
  8
I-C2
  5
1C7
 10
379.238177
 20
247.027116
 30
87.010088
 70
    64
  0
VERTEX
  8
I-C2
  5
1C8
 10
378.450995
 20
247.027116
 30
86.498886
 70
    64
  0
VERTEX
  8
I-C2
  5
1C9
 10
377.860311
 20
247.027116
 30
85.769451
 70
    64
  0
VERTEX
  8
I-C2
  5
1CA
 10
377.523944
 20
247.027116
 30
84.893186
 70
    64
  0
VERTEX
  8
I-C2
  5
1CB
 10
377.474821
 20
247.027116
 30
83.955866
 70
    64
  0
VERTEX
  8
I-C2
  5
1CC
 10
377.717751
 20
247.027116
 30
83.049241
 70
    64
  0
VERTEX
  8
I-C2
  5
1CD
 10
378.228953
 20
247.027116
 30
82.26206
 70
    64
  0
VERTEX
  8
I-C2
  5
1CE
 10
378.958387
 20
247.027116
 30
81.671375
 70
    64
  0
SEQEND
  8
I-C2
  5
1CF
  0
ARC
  8
I-C2
  5
1D0
 10
380.458387
 20
84.269451
 30
-247.027116
 40
3.0
 50
60.0
 51
240.0
210
0.0
220
-1.0
230
0.0
  0
ARC
  8
I-C2
  5
1D1
 10
380.458387
 20
84.269451
 30
-247.027116
 40
3.0
 50
240.0
 51
60.0
210
0.0
220
-1.0
230
0.0
  0
ARC
  8
I-C2
  5
1DF
 10
397.065342
 20
-47.169609
 30
-247.027116
 40
87.164856
 50
94.025116
 51
145.994889
210
0.0
220
-1.0
230
0.0
  0
ARC
  8
I-C2
  5
1E0
 10
317.165703
 20
91.164847
 30
-247.027116
 40
89.911314
 50
274.87512
 51
325.144885
210
0.0
220
-1.0
230
0.0
  0
ARC
  8
I-C2
  5
1E1
 10
311.590847
 20
-5.062452
 30
-244.027116
 40
33.261312
 50
14.927262
 51
97.764602
210
0.0
220
-1.0
230
0.0
  0
ARC
  8
I-C2
  5
1E2
 10
339.235992
 20
36.46177
 30
-244.027116
 40
33.261312
 50
194.927262
 51
277.764602
210
0.0
220
-1.0
230
0.0
  0
POLYLINE
  8
I-C2
  5
1E3
 66
     1
 10
0.0
 20
0.0
 30
0.0
 70
    16
 71
     2
 72
    11
  0
VERTEX
  8
I-C2
  5
1E4
 10
307.097129
 20
244.027116
 30
27.893903
 70
    64
  0
VERTEX
  8
I-C2
  5
1E5
 10
311.892209
 20
244.027116
 30
28.197494
 70
    64
  0
VERTEX
  8
I-C2
  5
1E6
 10
316.681001
 20
244.027116
 30
27.807065
 70
    64
  0
VERTEX
  8
I-C2
  5
1E7
 10
321.363578
 20
244.027116
 30
26.730763
 70
    64
  0
VERTEX
  8
I-C2
  5
1E8
 10
325.842233
 20
244.027116
 30
24.991047
 70
    64
  0
VERTEX
  8
I-C2
  5
1E9
 10
330.023511
 20
244.027116
 30
22.624219
 70
    64
  0
VERTEX
  8
I-C2
  5
1EA
 10
333.820163
 20
244.027116
 30
19.679665
 70
    64
  0
VERTEX
  8
I-C2
  5
1EB
 10
337.152966
 20
244.027116
 30
16.218829
 70
    64
  0
VERTEX
  8
I-C2
  5
1EC
 10
339.952376
 20
244.027116
 30
12.313927
 70
    64
  0
VERTEX
  8
I-C2
  5
1ED
 10
342.159979
 20
244.027116
 30
8.046439
 70
    64
  0
VERTEX
  8
I-C2
  5
1EE
 10
343.72971
 20
244.027116
 30
3.505414
 70
    64
  0
VERTEX
  8
I-C2
  5
1EF
 10
307.097129
 20
244.027116
 30
27.893903
 70
    64
  0
VERTEX
  8
I-C2
  5
1F0
 10
308.66686
 20
244.027116
 30
23.352878
 70
    64
  0
VERTEX
  8
I-C2
  5
1F1
 10
310.874463
 20
244.027116
 30
19.085391
 70
    64
  0
VERTEX
  8
I-C2
  5
1F2
 10
313.673873
 20
244.027116
 30
15.180488
 70
    64
  0
VERTEX
  8
I-C2
  5
1F3
 10
317.006676
 20
244.027116
 30
11.719652
 70
    64
  0
VERTEX
  8
I-C2
  5
1F4
 10
320.803328
 20
244.027116
 30
8.775099
 70
    64
  0
VERTEX
  8
I-C2
  5
1F5
 10
324.984605
 20
244.027116
 30
6.40827
 70
    64
  0
VERTEX
  8
I-C2
  5
1F6
 10
329.46326
 20
244.027116
 30
4.668554
 70
    64
  0
VERTEX
  8
I-C2
  5
1F7
 10
334.145838
 20
244.027116
 30
3.592252
 70
    64
  0
VERTEX
  8
I-C2
  5
1F8
 10
338.93463
 20
244.027116
 30
3.201823
 70
    64
  0
VERTEX
  8
I-C2
  5
1F9
 10
343.72971
 20
244.027116
 30
3.505414
 70
    64
  0
SEQEND
  8
I-C2
  5
1FA
  0
POLYLINE
  8
I-C2
  5
1FB
 66
     1
 10
0.0
 20
0.0
 30
0.0
 70
    16
 71
     2
 72
    11
  0
VERTEX
  8
I-C2
  5
1FC
 10
390.946913
 20
247.027116
 30
39.780244
 70
    64
  0
VERTEX
  8
I-C2
  5
1FD
 10
383.096144
 20
247.027116
 30
38.868601
 70
    64
  0
VERTEX
  8
I-C2
  5
1FE
 10
375.360224
 20
247.027116
 30
37.249583
 70
    64
  0
VERTEX
  8
I-C2
  5
1FF
 10
367.802756
 20
247.027116
 30
34.9365
 70
    64
  0
VERTEX
  8
I-C2
  5
200
 10
360.485875
 20
247.027116
 30
31.94837
 70
    64
  0
VERTEX
  8
I-C2
  5
201
 10
353.469737
 20
247.027116
 30
28.309761
 70
    64
  0
VERTEX
  8
I-C2
  5
202
 10
346.812026
 20
247.027116
 30
24.050587
 70
    64
  0
VERTEX
  8
I-C2
  5
203
 10
340.56748
 20
247.027116
 30
19.205866
 70
    64
  0
VERTEX
  8
I-C2
  5
204
 10
334.78744
 20
247.027116
 30
13.81543
 70
    64
  0
VERTEX
  8
I-C2
  5
205
 10
329.519426
 20
247.027116
 30
7.923596
 70
    64
  0
VERTEX
  8
I-C2
  5
206
 10
324.80675
 20
247.027116
 30
1.578806
 70
    64
  0
VERTEX
  8
I-C2
  5
207
 10
390.946913
 20
247.027116
 30
39.780244
 70
    64
  0
VERTEX
  8
I-C2
  5
208
 10
386.160553
 20
247.027116
 30
33.512831
 70
    64
  0
VERTEX
  8
I-C2
  5
209
 10
380.843424
 20
247.027116
 30
27.688928
 70
    64
  0
VERTEX
  8
I-C2
  5
20A
 10
375.036428
 20
247.027116
 30
22.353339
 70
    64
  0
VERTEX
  8
I-C2
  5
20B
 10
368.784238
 20
247.027116
 30
17.54711
 70
    64
  0
VERTEX
  8
I-C2
  5
20C
 10
362.134953
 20
247.027116
 30
13.307215
 70
    64
  0
VERTEX
  8
I-C2
  5
20D
 10
355.139724
 20
247.027116
 30
9.66627
 70
    64
  0
VERTEX
  8
I-C2
  5
20E
 10
347.852365
 20
247.027116
 30
6.652285
 70
    64
  0
VERTEX
  8
I-C2
  5
20F
 10
340.328936
 20
247.027116
 30
4.288447
 70
    64
  0
VERTEX
  8
I-C2
  5
210
 10
332.627316
 20
247.027116
 30
2.592939
 70
    64
  0
VERTEX
  8
I-C2
  5
211
 10
324.80675
 20
247.027116
 30
1.578806
 70
    64
  0
SEQEND
  8
I-C2
  5
212
  0
ARC
  8
I-C3
  5
214
 10
336.458387
 20
8.059216
 30
-242.027116
 40
4.174485
 50
270.0
 51
90.0
210
0.0
220
-1.0
230
0.0
  0
LINE
  8
I-C3
  5
215
 10
335.932293
 20
242.027116
 30
8.0
 11
352.219505
 21
242.027116
 31
92.717665
210
0.0
220
-1.0
230
0.0
  0
LINE
  8
I-C3
  5
216
 10
336.932293
 20
242.027116
 30
8.0
 11
353.219505
 21
242.027116
 31
92.717665
210
0.0
220
-1.0
230
0.0
  0
3DFACE
  8
I-C3
  5
218
 10
352.219505
 20
242.027116
 30
92.717665
 11
353.219505
 21
242.027116
 31
92.717665
 12
336.932293
 22
242.027116
 32
8.0
 13
335.932293
 23
242.027116
 33
8.0
  0
POLYLINE
  8
I-C3
  5
21B
 66
     1
 10
0.0
 20
0.0
 30
0.0
 70
    16
 71
     2
 72
    11
  0
VERTEX
  8
I-C3
  5
21C
 10
336.458387
 20
242.027116
 30
12.233701
 70
    64
  0
VERTEX
  8
I-C3
  5
21D
 10
337.748374
 20
242.027116
 30
12.029387
 70
    64
  0
VERTEX
  8
I-C3
  5
21E
 10
338.912088
 20
242.027116
 30
11.436445
 70
    64
  0
VERTEX
  8
I-C3
  5
21F
 10
339.835617
 20
242.027116
 30
10.512917
 70
    64
  0
VERTEX
  8
I-C3
  5
220
 10
340.428558
 20
242.027116
 30
9.349203
 70
    64
  0
VERTEX
  8
I-C3
  5
221
 10
340.632872
 20
242.027116
 30
8.059216
 70
    64
  0
VERTEX
  8
I-C3
  5
222
 10
340.428558
 20
242.027116
 30
6.769229
 70
    64
  0
VERTEX
  8
I-C3
  5
223
 10
339.835617
 20
242.027116
 30
5.605515
 70
    64
  0
VERTEX
  8
I-C3
  5
224
 10
338.912088
 20
242.027116
 30
4.681986
 70
    64
  0
VERTEX
  8
I-C3
  5
225
 10
337.748374
 20
242.027116
 30
4.089044
 70
    64
  0
VERTEX
  8
I-C3
  5
226
 10
336.458387
 20
242.027116
 30
3.884731
 70
    64
  0
VERTEX
  8
I-C3
  5
227
 10
336.458387
 20
242.027116
 30
12.233701
 70
    64
  0
VERTEX
  8
I-C3
  5
228
 10
335.1684
 20
242.027116
 30
12.029387
 70
    64
  0
VERTEX
  8
I-C3
  5
229
 10
334.004686
 20
242.027116
 30
11.436445
 70
    64
  0
VERTEX
  8
I-C3
  5
22A
 10
333.081158
 20
242.027116
 30
10.512917
 70
    64
  0
VERTEX
  8
I-C3
  5
22B
 10
332.488216
 20
242.027116
 30
9.349203
 70
    64
  0
VERTEX
  8
I-C3
  5
22C
 10
332.283902
 20
242.027116
 30
8.059216
 70
    64
  0
VERTEX
  8
I-C3
  5
22D
 10
332.488216
 20
242.027116
 30
6.769229
 70
    64
  0
VERTEX
  8
I-C3
  5
22E
 10
333.081158
 20
242.027116
 30
5.605515
 70
    64
  0
VERTEX
  8
I-C3
  5
22F
 10
334.004686
 20
242.027116
 30
4.681986
 70
    64
  0
VERTEX
  8
I-C3
  5
230
 10
335.1684
 20
242.027116
 30
4.089044
 70
    64
  0
VERTEX
  8
I-C3
  5
231
 10
336.458387
 20
242.027116
 30
3.884731
 70
    64
  0
SEQEND
  8
I-C3
  5
232
  0
ARC
  8
I-C1
  5
233
 10
336.458387
 20
8.059216
 30
-250.027116
 40
100.0
 50
90.0
 51
270.0
210
0.0
220
-1.0
230
0.0
  0
POLYLINE
  8
I-C1
  5
234
 66
     1
 10
0.0
 20
0.0
 30
0.0
 70
    16
 71
     2
 72
    19
  0
VERTEX
  8
I-C1
  5
235
 10
336.458387
 20
250.027116
 30
108.059216
 70
    64
  0
VERTEX
  8
I-C1
  5
236
 10
353.823205
 20
250.027116
 30
106.539991
 70
    64
  0
VERTEX
  8
I-C1
  5
237
 10
370.660401
 20
250.027116
 30
102.028478
 70
    64
  0
VERTEX
  8
I-C1
  5
238
 10
386.458387
 20
250.027116
 30
94.661756
 70
    64
  0
VERTEX
  8
I-C1
  5
239
 10
400.737148
 20
250.027116
 30
84.66366
 70
    64
  0
VERTEX
  8
I-C1
  5
23A
 10
413.062831
 20
250.027116
 30
72.337977
 70
    64
  0
VERTEX
  8
I-C1
  5
23B
 10
423.060928
 20
250.027116
 30
58.059216
 70
    64
  0
VERTEX
  8
I-C1
  5
23C
 10
430.427649
 20
250.027116
 30
42.26123
 70
    64
  0
VERTEX
  8
I-C1
  5
23D
 10
434.939162
 20
250.027116
 30
25.424034
 70
    64
  0
VERTEX
  8
I-C1
  5
23E
 10
436.458387
 20
250.027116
 30
8.059216
 70
    64
  0
VERTEX
  8
I-C1
  5
23F
 10
434.939162
 20
250.027116
 30
-9.305602
 70
    64
  0
VERTEX
  8
I-C1
  5
240
 10
430.427649
 20
250.027116
 30
-26.142799
 70
    64
  0
VERTEX
  8
I-C1
  5
241
 10
423.060928
 20
250.027116
 30
-41.940784
 70
    64
  0
VERTEX
  8
I-C1
  5
242
 10
413.062831
 20
250.027116
 30
-56.219545
 70
    64
  0
VERTEX
  8
I-C1
  5
243
 10
400.737148
 20
250.027116
 30
-68.545228
 70
    64
  0
VERTEX
  8
I-C1
  5
244
 10
386.458387
 20
250.027116
 30
-78.543325
 70
    64
  0
VERTEX
  8
I-C1
  5
245
 10
370.660401
 20
250.027116
 30
-85.910046
 70
    64
  0
VERTEX
  8
I-C1
  5
246
 10
353.823205
 20
250.027116
 30
-90.421559
 70
    64
  0
VERTEX
  8
I-C1
  5
247
 10
336.458387
 20
250.027116
 30
-91.940784
 70
    64
  0
VERTEX
  8
I-C1
  5
248
 10
336.458387
 20
250.027116
 30
108.059216
 70
    64
  0
VERTEX
  8
I-C1
  5
249
 10
319.093569
 20
250.027116
 30
106.539991
 70
    64
  0
VERTEX
  8
I-C1
  5
24A
 10
302.256373
 20
250.027116
 30
102.028478
 70
    64
  0
VERTEX
  8
I-C1
  5
24B
 10
286.458387
 20
250.027116
 30
94.661756
 70
    64
  0
VERTEX
  8
I-C1
  5
24C
 10
272.179626
 20
250.027116
 30
84.66366
 70
    64
  0
VERTEX
  8
I-C1
  5
24D
 10
259.853943
 20
250.027116
 30
72.337977
 70
    64
  0
VERTEX
  8
I-C1
  5
24E
 10
249.855847
 20
250.027116
 30
58.059216
 70
    64
  0
VERTEX
  8
I-C1
  5
24F
 10
242.489125
 20
250.027116
 30
42.26123
 70
    64
  0
VERTEX
  8
I-C1
  5
250
 10
237.977612
 20
250.027116
 30
25.424034
 70
    64
  0
VERTEX
  8
I-C1
  5
251
 10
236.458387
 20
250.027116
 30
8.059216
 70
    64
  0
VERTEX
  8
I-C1
  5
252
 10
237.977612
 20
250.027116
 30
-9.305602
 70
    64
  0
VERTEX
  8
I-C1
  5
253
 10
242.489125
 20
250.027116
 30
-26.142799
 70
    64
  0
VERTEX
  8
I-C1
  5
254
 10
249.855847
 20
250.027116
 30
-41.940784
 70
    64
  0
VERTEX
  8
I-C1
  5
255
 10
259.853943
 20
250.027116
 30
-56.219545
 70
    64
  0
VERTEX
  8
I-C1
  5
256
 10
272.179626
 20
250.027116
 30
-68.545228
 70
    64
  0
VERTEX
  8
I-C1
  5
257
 10
286.458387
 20
250.027116
 30
-78.543325
 70
    64
  0
VERTEX
  8
I-C1
  5
258
 10
302.256373
 20
250.027116
 30
-85.910046
 70
    64
  0
VERTEX
  8
I-C1
  5
259
 10
319.093569
 20
250.027116
 30
-90.421559
 70
    64
  0
VERTEX
  8
I-C1
  5
25A
 10
336.458387
 20
250.027116
 30
-91.940784
 70
    64
  0
SEQEND
  8
I-C1
  5
25B
  0
LINE
  8
I-C2
  5
260
 10
336.458387
 20
220.027116
 30
-96.940784
 11
336.458387
 21
220.027116
 31
-111.940784
210
-1.0
220
-0.0000000000000095
230
0.0
  0
LINE
  8
I-C2
  5
265
 10
336.458387
 20
272.527116
 30
-132.940784
 11
336.458387
 21
255.027116
 31
-127.940784
210
-1.0
220
-0.0000000000000095
230
0.0
  0
LINE
  8
I-C2
  5
270
 10
336.458387
 20
237.527116
 30
-116.940784
 11
336.458387
 21
220.027116
 31
-111.940784
210
-1.0
220
-0.0000000000000095
230
0.0
  0
LINE
  8
I-C2
  5
271
 10
336.458387
 20
237.527116
 30
-119.940784
 11
336.458387
 21
255.027116
 31
-124.940784
210
-1.0
220
-0.0000000000000095
230
0.0
  0
LINE
  8
I-C2
  5
272
 10
336.458387
 20
272.527116
 30
-135.940784
 11
336.458387
 21
290.027116
 31
-140.940784
210
-1.0
220
-0.0000000000000095
230
0.0
  0
LINE
  8
I-C2
  5
274
 10
336.458387
 20
272.527116
 30
-135.940784
 11
336.458387
 21
272.527116
 31
-132.940784
210
-1.0
220
-0.0000000000000095
230
0.0
  0
LINE
  8
I-C2
  5
275
 10
336.458387
 20
255.027116
 30
-127.940784
 11
336.458387
 21
255.027116
 31
-124.940784
210
-1.0
220
-0.0000000000000095
230
0.0
  0
LINE
  8
I-C2
  5
276
 10
336.458387
 20
237.527116
 30
-119.940784
 11
336.458387
 21
237.527116
 31
-116.940784
210
-1.0
220
-0.0000000000000095
230
0.0
  0
LINE
  8
I-C2
  5
277
 10
336.458387
 20
225.027116
 30
-91.940784
 11
336.458387
 21
250.027116
 31
-91.940784
210
-1.0
220
-0.0000000000000095
230
0.0
  0
ARC
  8
I-C2
  5
278
 10
-225.027116
 20
-96.940784
 30
-336.458387
 40
5.0
 50
0.0
 51
90.0
210
-1.0
220
-0.0000000000000095
230
0.0
  0
POLYLINE
  8
I-C-GLASS
  5
27A
 66
     1
 10
0.0
 20
0.0
 30
0.0
 70
    16
 71
     2
 72
    19
  0
VERTEX
  8
I-C-GLASS
  5
27B
 10
336.458387
 20
225.027116
 30
108.059216
 70
    64
  0
VERTEX
  8
I-C-GLASS
  5
27C
 10
353.823205
 20
225.027116
 30
106.539991
 70
    64
  0
VERTEX
  8
I-C-GLASS
  5
27D
 10
370.660401
 20
225.027116
 30
102.028478
 70
    64
  0
VERTEX
  8
I-C-GLASS
  5
27E
 10
386.458387
 20
225.027116
 30
94.661756
 70
    64
  0
VERTEX
  8
I-C-GLASS
  5
27F
 10
400.737148
 20
225.027116
 30
84.66366
 70
    64
  0
VERTEX
  8
I-C-GLASS
  5
280
 10
413.062831
 20
225.027116
 30
72.337977
 70
    64
  0
VERTEX
  8
I-C-GLASS
  5
281
 10
423.060928
 20
225.027116
 30
58.059216
 70
    64
  0
VERTEX
  8
I-C-GLASS
  5
282
 10
430.427649
 20
225.027116
 30
42.26123
 70
    64
  0
VERTEX
  8
I-C-GLASS
  5
283
 10
434.939162
 20
225.027116
 30
25.424034
 70
    64
  0
VERTEX
  8
I-C-GLASS
  5
284
 10
436.458387
 20
225.027116
 30
8.059216
 70
    64
  0
VERTEX
  8
I-C-GLASS
  5
285
 10
434.939162
 20
225.027116
 30
-9.305602
 70
    64
  0
VERTEX
  8
I-C-GLASS
  5
286
 10
430.427649
 20
225.027116
 30
-26.142799
 70
    64
  0
VERTEX
  8
I-C-GLASS
  5
287
 10
423.060928
 20
225.027116
 30
-41.940784
 70
    64
  0
VERTEX
  8
I-C-GLASS
  5
288
 10
413.062831
 20
225.027116
 30
-56.219545
 70
    64
  0
VERTEX
  8
I-C-GLASS
  5
289
 10
400.737148
 20
225.027116
 30
-68.545228
 70
    64
  0
VERTEX
  8
I-C-GLASS
  5
28A
 10
386.458387
 20
225.027116
 30
-78.543325
 70
    64
  0
VERTEX
  8
I-C-GLASS
  5
28B
 10
370.660401
 20
225.027116
 30
-85.910046
 70
    64
  0
VERTEX
  8
I-C-GLASS
  5
28C
 10
353.823205
 20
225.027116
 30
-90.421559
 70
    64
  0
VERTEX
  8
I-C-GLASS
  5
28D
 10
336.458387
 20
225.027116
 30
-91.940784
 70
    64
  0
VERTEX
  8
I-C-GLASS
  5
28E
 10
336.458387
 20
225.027116
 30
108.059216
 70
    64
  0
VERTEX
  8
I-C-GLASS
  5
28F
 10
319.093569
 20
225.027116
 30
106.539991
 70
    64
  0
VERTEX
  8
I-C-GLASS
  5
290
 10
302.256373
 20
225.027116
 30
102.028478
 70
    64
  0
VERTEX
  8
I-C-GLASS
  5
291
 10
286.458387
 20
225.027116
 30
94.661756
 70
    64
  0
VERTEX
  8
I-C-GLASS
  5
292
 10
272.179626
 20
225.027116
 30
84.66366
 70
    64
  0
VERTEX
  8
I-C-GLASS
  5
293
 10
259.853943
 20
225.027116
 30
72.337977
 70
    64
  0
VERTEX
  8
I-C-GLASS
  5
294
 10
249.855847
 20
225.027116
 30
58.059216
 70
    64
  0
VERTEX
  8
I-C-GLASS
  5
295
 10
242.489125
 20
225.027116
 30
42.26123
 70
    64
  0
VERTEX
  8
I-C-GLASS
  5
296
 10
237.977612
 20
225.027116
 30
25.424034
 70
    64
  0
VERTEX
  8
I-C-GLASS
  5
297
 10
236.458387
 20
225.027116
 30
8.059216
 70
    64
  0
VERTEX
  8
I-C-GLASS
  5
298
 10
237.977612
 20
225.027116
 30
-9.305602
 70
    64
  0
VERTEX
  8
I-C-GLASS
  5
299
 10
242.489125
 20
225.027116
 30
-26.142799
 70
    64
  0
VERTEX
  8
I-C-GLASS
  5
29A
 10
249.855847
 20
225.027116
 30
-41.940784
 70
    64
  0
VERTEX
  8
I-C-GLASS
  5
29B
 10
259.853943
 20
225.027116
 30
-56.219545
 70
    64
  0
VERTEX
  8
I-C-GLASS
  5
29C
 10
272.179626
 20
225.027116
 30
-68.545228
 70
    64
  0
VERTEX
  8
I-C-GLASS
  5
29D
 10
286.458387
 20
225.027116
 30
-78.543325
 70
    64
  0
VERTEX
  8
I-C-GLASS
  5
29E
 10
302.256373
 20
225.027116
 30
-85.910046
 70
    64
  0
VERTEX
  8
I-C-GLASS
  5
29F
 10
319.093569
 20
225.027116
 30
-90.421559
 70
    64
  0
VERTEX
  8
I-C-GLASS
  5
2A0
 10
336.458387
 20
225.027116
 30
-91.940784
 70
    64
  0
SEQEND
  8
I-C-GLASS
  5
2A1
  0
POLYLINE
  8
I-C2
  5
312
 66
     1
 10
0.0
 20
0.0
 30
0.0
 70
    17
 71
    36
 72
     6
  0
VERTEX
  8
I-C2
  5
313
 10
336.458387
 20
225.027116
 30
-91.940784
 70
    64
  0
VERTEX
  8
I-C2
  5
314
 10
336.458387
 20
223.482031
 30
-92.185502
 70
    64
  0
VERTEX
  8
I-C2
  5
315
 10
336.458387
 20
222.088189
 30
-92.895699
 70
    64
  0
VERTEX
  8
I-C2
  5
316
 10
336.458387
 20
220.982031
 30
-94.001858
 70
    64
  0
VERTEX
  8
I-C2
  5
317
 10
336.458387
 20
220.271833
 30
-95.395699
 70
    64
  0
VERTEX
  8
I-C2
  5
318
 10
336.458387
 20
220.027116
 30
-96.940784
 70
    64
  0
VERTEX
  8
I-C2
  5
319
 10
319.093569
 20
225.027116
 30
-90.421559
 70
    64
  0
VERTEX
  8
I-C2
  5
31A
 10
319.051075
 20
223.482031
 30
-90.662559
 70
    64
  0
VERTEX
  8
I-C2
  5
31B
 10
318.92775
 20
222.088189
 30
-91.361967
 70
    64
  0
VERTEX
  8
I-C2
  5
31C
 10
318.735668
 20
220.982031
 30
-92.451321
 70
    64
  0
VERTEX
  8
I-C2
  5
31D
 10
318.49363
 20
220.271833
 30
-93.823987
 70
    64
  0
VERTEX
  8
I-C2
  5
31E
 10
318.225328
 20
220.027116
 30
-95.345598
 70
    64
  0
VERTEX
  8
I-C2
  5
31F
 10
302.256373
 20
225.027116
 30
-85.910046
 70
    64
  0
VERTEX
  8
I-C2
  5
320
 10
302.172675
 20
223.482031
 30
-86.140005
 70
    64
  0
VERTEX
  8
I-C2
  5
321
 10
301.929773
 20
222.088189
 30
-86.807373
 70
    64
  0
VERTEX
  8
I-C2
  5
322
 10
301.551444
 20
220.982031
 30
-87.846822
 70
    64
  0
VERTEX
  8
I-C2
  5
323
 10
301.074722
 20
220.271833
 30
-89.156604
 70
    64
  0
VERTEX
  8
I-C2
  5
324
 10
300.546272
 20
220.027116
 30
-90.608509
 70
    64
  0
VERTEX
  8
I-C2
  5
325
 10
286.458387
 20
225.027116
 30
-78.543325
 70
    64
  0
VERTEX
  8
I-C2
  5
326
 10
286.336028
 20
223.482031
 30
-78.755256
 70
    64
  0
VERTEX
  8
I-C2
  5
327
 10
285.98093
 20
222.088189
 30
-79.370305
 70
    64
  0
VERTEX
  8
I-C2
  5
328
 10
285.42785
 20
220.982031
 30
-80.328267
 70
    64
  0
VERTEX
  8
I-C2
  5
329
 10
284.73093
 20
220.271833
 30
-81.535369
 70
    64
  0
VERTEX
  8
I-C2
  5
32A
 10
283.958387
 20
220.027116
 30
-82.873452
 70
    64
  0
VERTEX
  8
I-C2
  5
32B
 10
272.179626
 20
225.027116
 30
-68.545228
 70
    64
  0
VERTEX
  8
I-C2
  5
32C
 10
272.022325
 20
223.482031
 30
-68.732693
 70
    64
  0
VERTEX
  8
I-C2
  5
32D
 10
271.565819
 20
222.088189
 30
-69.276736
 70
    64
  0
VERTEX
  8
I-C2
  5
32E
 10
270.854794
 20
220.982031
 30
-70.124103
 70
    64
  0
VERTEX
  8
I-C2
  5
32F
 10
269.95885
 20
220.271833
 30
-71.191847
 70
    64
  0
VERTEX
  8
I-C2
  5
330
 10
268.965688
 20
220.027116
 30
-72.375451
 70
    64
  0
VERTEX
  8
I-C2
  5
331
 10
259.853943
 20
225.027116
 30
-56.219545
 70
    64
  0
VERTEX
  8
I-C2
  5
332
 10
259.666478
 20
223.482031
 30
-56.376846
 70
    64
  0
VERTEX
  8
I-C2
  5
333
 10
259.122435
 20
222.088189
 30
-56.833353
 70
    64
  0
VERTEX
  8
I-C2
  5
334
 10
258.275069
 20
220.982031
 30
-57.544378
 70
    64
  0
VERTEX
  8
I-C2
  5
335
 10
257.207324
 20
220.271833
 30
-58.440322
 70
    64
  0
VERTEX
  8
I-C2
  5
336
 10
256.023721
 20
220.027116
 30
-59.433483
 70
    64
  0
VERTEX
  8
I-C2
  5
337
 10
249.855847
 20
225.027116
 30
-41.940784
 70
    64
  0
VERTEX
  8
I-C2
  5
338
 10
249.643915
 20
223.482031
 30
-42.063143
 70
    64
  0
VERTEX
  8
I-C2
  5
339
 10
249.028866
 20
222.088189
 30
-42.418242
 70
    64
  0
VERTEX
  8
I-C2
  5
33A
 10
248.070905
 20
220.982031
 30
-42.971321
 70
    64
  0
VERTEX
  8
I-C2
  5
33B
 10
246.863803
 20
220.271833
 30
-43.668242
 70
    64
  0
VERTEX
  8
I-C2
  5
33C
 10
245.52572
 20
220.027116
 30
-44.440784
 70
    64
  0
VERTEX
  8
I-C2
  5
33D
 10
242.489125
 20
225.027116
 30
-26.142799
 70
    64
  0
VERTEX
  8
I-C2
  5
33E
 10
242.259166
 20
223.482031
 30
-26.226497
 70
    64
  0
VERTEX
  8
I-C2
  5
33F
 10
241.591798
 20
222.088189
 30
-26.469399
 70
    64
  0
VERTEX
  8
I-C2
  5
340
 10
240.552349
 20
220.982031
 30
-26.847727
 70
    64
  0
VERTEX
  8
I-C2
  5
341
 10
239.242567
 20
220.271833
 30
-27.324449
 70
    64
  0
VERTEX
  8
I-C2
  5
342
 10
237.790662
 20
220.027116
 30
-27.852899
 70
    64
  0
VERTEX
  8
I-C2
  5
343
 10
237.977612
 20
225.027116
 30
-9.305602
 70
    64
  0
VERTEX
  8
I-C2
  5
344
 10
237.736612
 20
223.482031
 30
-9.348097
 70
    64
  0
VERTEX
  8
I-C2
  5
345
 10
237.037204
 20
222.088189
 30
-9.471421
 70
    64
  0
VERTEX
  8
I-C2
  5
346
 10
235.94785
 20
220.982031
 30
-9.663504
 70
    64
  0
VERTEX
  8
I-C2
  5
347
 10
234.575185
 20
220.271833
 30
-9.905542
 70
    64
  0
VERTEX
  8
I-C2
  5
348
 10
233.053573
 20
220.027116
 30
-10.173843
 70
    64
  0
VERTEX
  8
I-C2
  5
349
 10
236.458387
 20
225.027116
 30
8.059216
 70
    64
  0
VERTEX
  8
I-C2
  5
34A
 10
236.21367
 20
223.482031
 30
8.059216
 70
    64
  0
VERTEX
  8
I-C2
  5
34B
 10
235.503472
 20
222.088189
 30
8.059216
 70
    64
  0
VERTEX
  8
I-C2
  5
34C
 10
234.397313
 20
220.982031
 30
8.059216
 70
    64
  0
VERTEX
  8
I-C2
  5
34D
 10
233.003472
 20
220.271833
 30
8.059216
 70
    64
  0
VERTEX
  8
I-C2
  5
34E
 10
231.458387
 20
220.027116
 30
8.059216
 70
    64
  0
VERTEX
  8
I-C2
  5
34F
 10
237.977612
 20
225.027116
 30
25.424034
 70
    64
  0
VERTEX
  8
I-C2
  5
350
 10
237.736612
 20
223.482031
 30
25.466528
 70
    64
  0
VERTEX
  8
I-C2
  5
351
 10
237.037204
 20
222.088189
 30
25.589853
 70
    64
  0
VERTEX
  8
I-C2
  5
352
 10
235.94785
 20
220.982031
 30
25.781935
 70
    64
  0
VERTEX
  8
I-C2
  5
353
 10
234.575185
 20
220.271833
 30
26.023973
 70
    64
  0
VERTEX
  8
I-C2
  5
354
 10
233.053573
 20
220.027116
 30
26.292274
 70
    64
  0
VERTEX
  8
I-C2
  5
355
 10
242.489125
 20
225.027116
 30
42.26123
 70
    64
  0
VERTEX
  8
I-C2
  5
356
 10
242.259166
 20
223.482031
 30
42.344928
 70
    64
  0
VERTEX
  8
I-C2
  5
357
 10
241.591798
 20
222.088189
 30
42.58783
 70
    64
  0
VERTEX
  8
I-C2
  5
358
 10
240.552349
 20
220.982031
 30
42.966159
 70
    64
  0
VERTEX
  8
I-C2
  5
359
 10
239.242567
 20
220.271833
 30
43.442881
 70
    64
  0
VERTEX
  8
I-C2
  5
35A
 10
237.790662
 20
220.027116
 30
43.971331
 70
    64
  0
VERTEX
  8
I-C2
  5
35B
 10
249.855847
 20
225.027116
 30
58.059216
 70
    64
  0
VERTEX
  8
I-C2
  5
35C
 10
249.643915
 20
223.482031
 30
58.181575
 70
    64
  0
VERTEX
  8
I-C2
  5
35D
 10
249.028866
 20
222.088189
 30
58.536673
 70
    64
  0
VERTEX
  8
I-C2
  5
35E
 10
248.070905
 20
220.982031
 30
59.089753
 70
    64
  0
VERTEX
  8
I-C2
  5
35F
 10
246.863803
 20
220.271833
 30
59.786673
 70
    64
  0
VERTEX
  8
I-C2
  5
360
 10
245.52572
 20
220.027116
 30
60.559216
 70
    64
  0
VERTEX
  8
I-C2
  5
361
 10
259.853943
 20
225.027116
 30
72.337977
 70
    64
  0
VERTEX
  8
I-C2
  5
362
 10
259.666478
 20
223.482031
 30
72.495278
 70
    64
  0
VERTEX
  8
I-C2
  5
363
 10
259.122435
 20
222.088189
 30
72.951784
 70
    64
  0
VERTEX
  8
I-C2
  5
364
 10
258.275069
 20
220.982031
 30
73.662809
 70
    64
  0
VERTEX
  8
I-C2
  5
365
 10
257.207324
 20
220.271833
 30
74.558753
 70
    64
  0
VERTEX
  8
I-C2
  5
366
 10
256.023721
 20
220.027116
 30
75.551915
 70
    64
  0
VERTEX
  8
I-C2
  5
367
 10
272.179626
 20
225.027116
 30
84.66366
 70
    64
  0
VERTEX
  8
I-C2
  5
368
 10
272.022325
 20
223.482031
 30
84.851125
 70
    64
  0
VERTEX
  8
I-C2
  5
369
 10
271.565819
 20
222.088189
 30
85.395167
 70
    64
  0
VERTEX
  8
I-C2
  5
36A
 10
270.854794
 20
220.982031
 30
86.242534
 70
    64
  0
VERTEX
  8
I-C2
  5
36B
 10
269.95885
 20
220.271833
 30
87.310279
 70
    64
  0
VERTEX
  8
I-C2
  5
36C
 10
268.965688
 20
220.027116
 30
88.493882
 70
    64
  0
VERTEX
  8
I-C2
  5
36D
 10
286.458387
 20
225.027116
 30
94.661756
 70
    64
  0
VERTEX
  8
I-C2
  5
36E
 10
286.336028
 20
223.482031
 30
94.873688
 70
    64
  0
VERTEX
  8
I-C2
  5
36F
 10
285.98093
 20
222.088189
 30
95.488737
 70
    64
  0
VERTEX
  8
I-C2
  5
370
 10
285.42785
 20
220.982031
 30
96.446698
 70
    64
  0
VERTEX
  8
I-C2
  5
371
 10
284.73093
 20
220.271833
 30
97.6538
 70
    64
  0
VERTEX
  8
I-C2
  5
372
 10
283.958387
 20
220.027116
 30
98.991883
 70
    64
  0
VERTEX
  8
I-C2
  5
373
 10
302.256373
 20
225.027116
 30
102.028478
 70
    64
  0
VERTEX
  8
I-C2
  5
374
 10
302.172675
 20
223.482031
 30
102.258437
 70
    64
  0
VERTEX
  8
I-C2
  5
375
 10
301.929773
 20
222.088189
 30
102.925805
 70
    64
  0
VERTEX
  8
I-C2
  5
376
 10
301.551444
 20
220.982031
 30
103.965254
 70
    64
  0
VERTEX
  8
I-C2
  5
377
 10
301.074722
 20
220.271833
 30
105.275036
 70
    64
  0
VERTEX
  8
I-C2
  5
378
 10
300.546272
 20
220.027116
 30
106.726941
 70
    64
  0
VERTEX
  8
I-C2
  5
379
 10
319.093569
 20
225.027116
 30
106.539991
 70
    64
  0
VERTEX
  8
I-C2
  5
37A
 10
319.051075
 20
223.482031
 30
106.780991
 70
    64
  0
VERTEX
  8
I-C2
  5
37B
 10
318.92775
 20
222.088189
 30
107.480399
 70
    64
  0
VERTEX
  8
I-C2
  5
37C
 10
318.735668
 20
220.982031
 30
108.569753
 70
    64
  0
VERTEX
  8
I-C2
  5
37D
 10
318.49363
 20
220.271833
 30
109.942418
 70
    64
  0
VERTEX
  8
I-C2
  5
37E
 10
318.225328
 20
220.027116
 30
111.46403
 70
    64
  0
VERTEX
  8
I-C2
  5
37F
 10
336.458387
 20
225.027116
 30
108.059216
 70
    64
  0
VERTEX
  8
I-C2
  5
380
 10
336.458387
 20
223.482031
 30
108.303933
 70
    64
  0
VERTEX
  8
I-C2
  5
381
 10
336.458387
 20
222.088189
 30
109.014131
 70
    64
  0
VERTEX
  8
I-C2
  5
382
 10
336.458387
 20
220.982031
 30
110.12029
 70
    64
  0
VERTEX
  8
I-C2
  5
383
 10
336.458387
 20
220.271833
 30
111.514131
 70
    64
  0
VERTEX
  8
I-C2
  5
384
 10
336.458387
 20
220.027116
 30
113.059216
 70
    64
  0
VERTEX
  8
I-C2
  5
385
 10
353.823205
 20
225.027116
 30
106.539991
 70
    64
  0
VERTEX
  8
I-C2
  5
386
 10
353.8657
 20
223.482031
 30
106.780991
 70
    64
  0
VERTEX
  8
I-C2
  5
387
 10
353.989024
 20
222.088189
 30
107.480399
 70
    64
  0
VERTEX
  8
I-C2
  5
388
 10
354.181107
 20
220.982031
 30
108.569753
 70
    64
  0
VERTEX
  8
I-C2
  5
389
 10
354.423145
 20
220.271833
 30
109.942418
 70
    64
  0
VERTEX
  8
I-C2
  5
38A
 10
354.691446
 20
220.027116
 30
111.46403
 70
    64
  0
VERTEX
  8
I-C2
  5
38B
 10
370.660401
 20
225.027116
 30
102.028478
 70
    64
  0
VERTEX
  8
I-C2
  5
38C
 10
370.7441
 20
223.482031
 30
102.258437
 70
    64
  0
VERTEX
  8
I-C2
  5
38D
 10
370.987002
 20
222.088189
 30
102.925805
 70
    64
  0
VERTEX
  8
I-C2
  5
38E
 10
371.36533
 20
220.982031
 30
103.965254
 70
    64
  0
VERTEX
  8
I-C2
  5
38F
 10
371.842052
 20
220.271833
 30
105.275036
 70
    64
  0
VERTEX
  8
I-C2
  5
390
 10
372.370502
 20
220.027116
 30
106.726941
 70
    64
  0
VERTEX
  8
I-C2
  5
391
 10
386.458387
 20
225.027116
 30
94.661756
 70
    64
  0
VERTEX
  8
I-C2
  5
392
 10
386.580746
 20
223.482031
 30
94.873688
 70
    64
  0
VERTEX
  8
I-C2
  5
393
 10
386.935845
 20
222.088189
 30
95.488737
 70
    64
  0
VERTEX
  8
I-C2
  5
394
 10
387.488924
 20
220.982031
 30
96.446698
 70
    64
  0
VERTEX
  8
I-C2
  5
395
 10
388.185845
 20
220.271833
 30
97.6538
 70
    64
  0
VERTEX
  8
I-C2
  5
396
 10
388.958387
 20
220.027116
 30
98.991883
 70
    64
  0
VERTEX
  8
I-C2
  5
397
 10
400.737148
 20
225.027116
 30
84.66366
 70
    64
  0
VERTEX
  8
I-C2
  5
398
 10
400.894449
 20
223.482031
 30
84.851125
 70
    64
  0
VERTEX
  8
I-C2
  5
399
 10
401.350956
 20
222.088189
 30
85.395167
 70
    64
  0
VERTEX
  8
I-C2
  5
39A
 10
402.061981
 20
220.982031
 30
86.242534
 70
    64
  0
VERTEX
  8
I-C2
  5
39B
 10
402.957925
 20
220.271833
 30
87.310279
 70
    64
  0
VERTEX
  8
I-C2
  5
39C
 10
403.951086
 20
220.027116
 30
88.493882
 70
    64
  0
VERTEX
  8
I-C2
  5
39D
 10
413.062831
 20
225.027116
 30
72.337977
 70
    64
  0
VERTEX
  8
I-C2
  5
39E
 10
413.250296
 20
223.482031
 30
72.495278
 70
    64
  0
VERTEX
  8
I-C2
  5
39F
 10
413.794339
 20
222.088189
 30
72.951784
 70
    64
  0
VERTEX
  8
I-C2
  5
3A0
 10
414.641706
 20
220.982031
 30
73.662809
 70
    64
  0
VERTEX
  8
I-C2
  5
3A1
 10
415.70945
 20
220.271833
 30
74.558753
 70
    64
  0
VERTEX
  8
I-C2
  5
3A2
 10
416.893054
 20
220.027116
 30
75.551915
 70
    64
  0
VERTEX
  8
I-C2
  5
3A3
 10
423.060928
 20
225.027116
 30
58.059216
 70
    64
  0
VERTEX
  8
I-C2
  5
3A4
 10
423.272859
 20
223.482031
 30
58.181575
 70
    64
  0
VERTEX
  8
I-C2
  5
3A5
 10
423.887908
 20
222.088189
 30
58.536673
 70
    64
  0
VERTEX
  8
I-C2
  5
3A6
 10
424.84587
 20
220.982031
 30
59.089753
 70
    64
  0
VERTEX
  8
I-C2
  5
3A7
 10
426.052972
 20
220.271833
 30
59.786673
 70
    64
  0
VERTEX
  8
I-C2
  5
3A8
 10
427.391055
 20
220.027116
 30
60.559216
 70
    64
  0
VERTEX
  8
I-C2
  5
3A9
 10
430.427649
 20
225.027116
 30
42.26123
 70
    64
  0
VERTEX
  8
I-C2
  5
3AA
 10
430.657608
 20
223.482031
 30
42.344928
 70
    64
  0
VERTEX
  8
I-C2
  5
3AB
 10
431.324976
 20
222.088189
 30
42.58783
 70
    64
  0
VERTEX
  8
I-C2
  5
3AC
 10
432.364425
 20
220.982031
 30
42.966159
 70
    64
  0
VERTEX
  8
I-C2
  5
3AD
 10
433.674207
 20
220.271833
 30
43.442881
 70
    64
  0
VERTEX
  8
I-C2
  5
3AE
 10
435.126112
 20
220.027116
 30
43.971331
 70
    64
  0
VERTEX
  8
I-C2
  5
3AF
 10
434.939162
 20
225.027116
 30
25.424034
 70
    64
  0
VERTEX
  8
I-C2
  5
3B0
 10
435.180162
 20
223.482031
 30
25.466528
 70
    64
  0
VERTEX
  8
I-C2
  5
3B1
 10
435.87957
 20
222.088189
 30
25.589853
 70
    64
  0
VERTEX
  8
I-C2
  5
3B2
 10
436.968924
 20
220.982031
 30
25.781935
 70
    64
  0
VERTEX
  8
I-C2
  5
3B3
 10
438.34159
 20
220.271833
 30
26.023973
 70
    64
  0
VERTEX
  8
I-C2
  5
3B4
 10
439.863201
 20
220.027116
 30
26.292274
 70
    64
  0
VERTEX
  8
I-C2
  5
3B5
 10
436.458387
 20
225.027116
 30
8.059216
 70
    64
  0
VERTEX
  8
I-C2
  5
3B6
 10
436.703105
 20
223.482031
 30
8.059216
 70
    64
  0
VERTEX
  8
I-C2
  5
3B7
 10
437.413302
 20
222.088189
 30
8.059216
 70
    64
  0
VERTEX
  8
I-C2
  5
3B8
 10
438.519461
 20
220.982031
 30
8.059216
 70
    64
  0
VERTEX
  8
I-C2
  5
3B9
 10
439.913302
 20
220.271833
 30
8.059216
 70
    64
  0
VERTEX
  8
I-C2
  5
3BA
 10
441.458387
 20
220.027116
 30
8.059216
 70
    64
  0
VERTEX
  8
I-C2
  5
3BB
 10
434.939162
 20
225.027116
 30
-9.305602
 70
    64
  0
VERTEX
  8
I-C2
  5
3BC
 10
435.180162
 20
223.482031
 30
-9.348097
 70
    64
  0
VERTEX
  8
I-C2
  5
3BD
 10
435.87957
 20
222.088189
 30
-9.471421
 70
    64
  0
VERTEX
  8
I-C2
  5
3BE
 10
436.968924
 20
220.982031
 30
-9.663504
 70
    64
  0
VERTEX
  8
I-C2
  5
3BF
 10
438.34159
 20
220.271833
 30
-9.905542
 70
    64
  0
VERTEX
  8
I-C2
  5
3C0
 10
439.863201
 20
220.027116
 30
-10.173843
 70
    64
  0
VERTEX
  8
I-C2
  5
3C1
 10
430.427649
 20
225.027116
 30
-26.142799
 70
    64
  0
VERTEX
  8
I-C2
  5
3C2
 10
430.657608
 20
223.482031
 30
-26.226497
 70
    64
  0
VERTEX
  8
I-C2
  5
3C3
 10
431.324976
 20
222.088189
 30
-26.469399
 70
    64
  0
VERTEX
  8
I-C2
  5
3C4
 10
432.364425
 20
220.982031
 30
-26.847727
 70
    64
  0
VERTEX
  8
I-C2
  5
3C5
 10
433.674207
 20
220.271833
 30
-27.324449
 70
    64
  0
VERTEX
  8
I-C2
  5
3C6
 10
435.126112
 20
220.027116
 30
-27.852899
 70
    64
  0
VERTEX
  8
I-C2
  5
3C7
 10
423.060928
 20
225.027116
 30
-41.940784
 70
    64
  0
VERTEX
  8
I-C2
  5
3C8
 10
423.272859
 20
223.482031
 30
-42.063143
 70
    64
  0
VERTEX
  8
I-C2
  5
3C9
 10
423.887908
 20
222.088189
 30
-42.418242
 70
    64
  0
VERTEX
  8
I-C2
  5
3CA
 10
424.84587
 20
220.982031
 30
-42.971321
 70
    64
  0
VERTEX
  8
I-C2
  5
3CB
 10
426.052972
 20
220.271833
 30
-43.668242
 70
    64
  0
VERTEX
  8
I-C2
  5
3CC
 10
427.391055
 20
220.027116
 30
-44.440784
 70
    64
  0
VERTEX
  8
I-C2
  5
3CD
 10
413.062831
 20
225.027116
 30
-56.219545
 70
    64
  0
VERTEX
  8
I-C2
  5
3CE
 10
413.250296
 20
223.482031
 30
-56.376846
 70
    64
  0
VERTEX
  8
I-C2
  5
3CF
 10
413.794339
 20
222.088189
 30
-56.833353
 70
    64
  0
VERTEX
  8
I-C2
  5
3D0
 10
414.641706
 20
220.982031
 30
-57.544378
 70
    64
  0
VERTEX
  8
I-C2
  5
3D1
 10
415.70945
 20
220.271833
 30
-58.440322
 70
    64
  0
VERTEX
  8
I-C2
  5
3D2
 10
416.893054
 20
220.027116
 30
-59.433483
 70
    64
  0
VERTEX
  8
I-C2
  5
3D3
 10
400.737148
 20
225.027116
 30
-68.545228
 70
    64
  0
VERTEX
  8
I-C2
  5
3D4
 10
400.894449
 20
223.482031
 30
-68.732693
 70
    64
  0
VERTEX
  8
I-C2
  5
3D5
 10
401.350956
 20
222.088189
 30
-69.276736
 70
    64
  0
VERTEX
  8
I-C2
  5
3D6
 10
402.061981
 20
220.982031
 30
-70.124103
 70
    64
  0
VERTEX
  8
I-C2
  5
3D7
 10
402.957925
 20
220.271833
 30
-71.191847
 70
    64
  0
VERTEX
  8
I-C2
  5
3D8
 10
403.951086
 20
220.027116
 30
-72.375451
 70
    64
  0
VERTEX
  8
I-C2
  5
3D9
 10
386.458387
 20
225.027116
 30
-78.543325
 70
    64
  0
VERTEX
  8
I-C2
  5
3DA
 10
386.580746
 20
223.482031
 30
-78.755256
 70
    64
  0
VERTEX
  8
I-C2
  5
3DB
 10
386.935845
 20
222.088189
 30
-79.370305
 70
    64
  0
VERTEX
  8
I-C2
  5
3DC
 10
387.488924
 20
220.982031
 30
-80.328267
 70
    64
  0
VERTEX
  8
I-C2
  5
3DD
 10
388.185845
 20
220.271833
 30
-81.535369
 70
    64
  0
VERTEX
  8
I-C2
  5
3DE
 10
388.958387
 20
220.027116
 30
-82.873452
 70
    64
  0
VERTEX
  8
I-C2
  5
3DF
 10
370.660401
 20
225.027116
 30
-85.910046
 70
    64
  0
VERTEX
  8
I-C2
  5
3E0
 10
370.7441
 20
223.482031
 30
-86.140005
 70
    64
  0
VERTEX
  8
I-C2
  5
3E1
 10
370.987002
 20
222.088189
 30
-86.807373
 70
    64
  0
VERTEX
  8
I-C2
  5
3E2
 10
371.36533
 20
220.982031
 30
-87.846822
 70
    64
  0
VERTEX
  8
I-C2
  5
3E3
 10
371.842052
 20
220.271833
 30
-89.156604
 70
    64
  0
VERTEX
  8
I-C2
  5
3E4
 10
372.370502
 20
220.027116
 30
-90.608509
 70
    64
  0
VERTEX
  8
I-C2
  5
3E5
 10
353.823205
 20
225.027116
 30
-90.421559
 70
    64
  0
VERTEX
  8
I-C2
  5
3E6
 10
353.8657
 20
223.482031
 30
-90.662559
 70
    64
  0
VERTEX
  8
I-C2
  5
3E7
 10
353.989024
 20
222.088189
 30
-91.361967
 70
    64
  0
VERTEX
  8
I-C2
  5
3E8
 10
354.181107
 20
220.982031
 30
-92.451321
 70
    64
  0
VERTEX
  8
I-C2
  5
3E9
 10
354.423145
 20
220.271833
 30
-93.823987
 70
    64
  0
VERTEX
  8
I-C2
  5
3EA
 10
354.691446
 20
220.027116
 30
-95.345598
 70
    64
  0
SEQEND
  8
I-C2
  5
3EB
  0
POLYLINE
  8
I-C2
  5
3EC
 66
     1
 10
0.0
 20
0.0
 30
0.0
 70
    17
 71
    36
 72
     3
  0
VERTEX
  8
I-C2
  5
3ED
 10
336.458387
 20
225.027116
 30
-91.940784
 70
    64
  0
VERTEX
  8
I-C2
  5
3EE
 10
336.458387
 20
237.527116
 30
-91.940784
 70
    64
  0
VERTEX
  8
I-C2
  5
3EF
 10
336.458387
 20
250.027116
 30
-91.940784
 70
    64
  0
VERTEX
  8
I-C2
  5
3F0
 10
319.093569
 20
225.027116
 30
-90.421559
 70
    64
  0
VERTEX
  8
I-C2
  5
3F1
 10
319.093569
 20
237.527116
 30
-90.421559
 70
    64
  0
VERTEX
  8
I-C2
  5
3F2
 10
319.093569
 20
250.027116
 30
-90.421559
 70
    64
  0
VERTEX
  8
I-C2
  5
3F3
 10
302.256373
 20
225.027116
 30
-85.910046
 70
    64
  0
VERTEX
  8
I-C2
  5
3F4
 10
302.256373
 20
237.527116
 30
-85.910046
 70
    64
  0
VERTEX
  8
I-C2
  5
3F5
 10
302.256373
 20
250.027116
 30
-85.910046
 70
    64
  0
VERTEX
  8
I-C2
  5
3F6
 10
286.458387
 20
225.027116
 30
-78.543325
 70
    64
  0
VERTEX
  8
I-C2
  5
3F7
 10
286.458387
 20
237.527116
 30
-78.543325
 70
    64
  0
VERTEX
  8
I-C2
  5
3F8
 10
286.458387
 20
250.027116
 30
-78.543325
 70
    64
  0
VERTEX
  8
I-C2
  5
3F9
 10
272.179626
 20
225.027116
 30
-68.545228
 70
    64
  0
VERTEX
  8
I-C2
  5
3FA
 10
272.179626
 20
237.527116
 30
-68.545228
 70
    64
  0
VERTEX
  8
I-C2
  5
3FB
 10
272.179626
 20
250.027116
 30
-68.545228
 70
    64
  0
VERTEX
  8
I-C2
  5
3FC
 10
259.853943
 20
225.027116
 30
-56.219545
 70
    64
  0
VERTEX
  8
I-C2
  5
3FD
 10
259.853943
 20
237.527116
 30
-56.219545
 70
    64
  0
VERTEX
  8
I-C2
  5
3FE
 10
259.853943
 20
250.027116
 30
-56.219545
 70
    64
  0
VERTEX
  8
I-C2
  5
3FF
 10
249.855847
 20
225.027116
 30
-41.940784
 70
    64
  0
VERTEX
  8
I-C2
  5
400
 10
249.855847
 20
237.527116
 30
-41.940784
 70
    64
  0
VERTEX
  8
I-C2
  5
401
 10
249.855847
 20
250.027116
 30
-41.940784
 70
    64
  0
VERTEX
  8
I-C2
  5
402
 10
242.489125
 20
225.027116
 30
-26.142799
 70
    64
  0
VERTEX
  8
I-C2
  5
403
 10
242.489125
 20
237.527116
 30
-26.142799
 70
    64
  0
VERTEX
  8
I-C2
  5
404
 10
242.489125
 20
250.027116
 30
-26.142799
 70
    64
  0
VERTEX
  8
I-C2
  5
405
 10
237.977612
 20
225.027116
 30
-9.305602
 70
    64
  0
VERTEX
  8
I-C2
  5
406
 10
237.977612
 20
237.527116
 30
-9.305602
 70
    64
  0
VERTEX
  8
I-C2
  5
407
 10
237.977612
 20
250.027116
 30
-9.305602
 70
    64
  0
VERTEX
  8
I-C2
  5
408
 10
236.458387
 20
225.027116
 30
8.059216
 70
    64
  0
VERTEX
  8
I-C2
  5
409
 10
236.458387
 20
237.527116
 30
8.059216
 70
    64
  0
VERTEX
  8
I-C2
  5
40A
 10
236.458387
 20
250.027116
 30
8.059216
 70
    64
  0
VERTEX
  8
I-C2
  5
40B
 10
237.977612
 20
225.027116
 30
25.424034
 70
    64
  0
VERTEX
  8
I-C2
  5
40C
 10
237.977612
 20
237.527116
 30
25.424034
 70
    64
  0
VERTEX
  8
I-C2
  5
40D
 10
237.977612
 20
250.027116
 30
25.424034
 70
    64
  0
VERTEX
  8
I-C2
  5
40E
 10
242.489125
 20
225.027116
 30
42.26123
 70
    64
  0
VERTEX
  8
I-C2
  5
40F
 10
242.489125
 20
237.527116
 30
42.26123
 70
    64
  0
VERTEX
  8
I-C2
  5
410
 10
242.489125
 20
250.027116
 30
42.26123
 70
    64
  0
VERTEX
  8
I-C2
  5
411
 10
249.855847
 20
225.027116
 30
58.059216
 70
    64
  0
VERTEX
  8
I-C2
  5
412
 10
249.855847
 20
237.527116
 30
58.059216
 70
    64
  0
VERTEX
  8
I-C2
  5
413
 10
249.855847
 20
250.027116
 30
58.059216
 70
    64
  0
VERTEX
  8
I-C2
  5
414
 10
259.853943
 20
225.027116
 30
72.337977
 70
    64
  0
VERTEX
  8
I-C2
  5
415
 10
259.853943
 20
237.527116
 30
72.337977
 70
    64
  0
VERTEX
  8
I-C2
  5
416
 10
259.853943
 20
250.027116
 30
72.337977
 70
    64
  0
VERTEX
  8
I-C2
  5
417
 10
272.179626
 20
225.027116
 30
84.66366
 70
    64
  0
VERTEX
  8
I-C2
  5
418
 10
272.179626
 20
237.527116
 30
84.66366
 70
    64
  0
VERTEX
  8
I-C2
  5
419
 10
272.179626
 20
250.027116
 30
84.66366
 70
    64
  0
VERTEX
  8
I-C2
  5
41A
 10
286.458387
 20
225.027116
 30
94.661756
 70
    64
  0
VERTEX
  8
I-C2
  5
41B
 10
286.458387
 20
237.527116
 30
94.661756
 70
    64
  0
VERTEX
  8
I-C2
  5
41C
 10
286.458387
 20
250.027116
 30
94.661756
 70
    64
  0
VERTEX
  8
I-C2
  5
41D
 10
302.256373
 20
225.027116
 30
102.028478
 70
    64
  0
VERTEX
  8
I-C2
  5
41E
 10
302.256373
 20
237.527116
 30
102.028478
 70
    64
  0
VERTEX
  8
I-C2
  5
41F
 10
302.256373
 20
250.027116
 30
102.028478
 70
    64
  0
VERTEX
  8
I-C2
  5
420
 10
319.093569
 20
225.027116
 30
106.539991
 70
    64
  0
VERTEX
  8
I-C2
  5
421
 10
319.093569
 20
237.527116
 30
106.539991
 70
    64
  0
VERTEX
  8
I-C2
  5
422
 10
319.093569
 20
250.027116
 30
106.539991
 70
    64
  0
VERTEX
  8
I-C2
  5
423
 10
336.458387
 20
225.027116
 30
108.059216
 70
    64
  0
VERTEX
  8
I-C2
  5
424
 10
336.458387
 20
237.527116
 30
108.059216
 70
    64
  0
VERTEX
  8
I-C2
  5
425
 10
336.458387
 20
250.027116
 30
108.059216
 70
    64
  0
VERTEX
  8
I-C2
  5
426
 10
353.823205
 20
225.027116
 30
106.539991
 70
    64
  0
VERTEX
  8
I-C2
  5
427
 10
353.823205
 20
237.527116
 30
106.539991
 70
    64
  0
VERTEX
  8
I-C2
  5
428
 10
353.823205
 20
250.027116
 30
106.539991
 70
    64
  0
VERTEX
  8
I-C2
  5
429
 10
370.660401
 20
225.027116
 30
102.028478
 70
    64
  0
VERTEX
  8
I-C2
  5
42A
 10
370.660401
 20
237.527116
 30
102.028478
 70
    64
  0
VERTEX
  8
I-C2
  5
42B
 10
370.660401
 20
250.027116
 30
102.028478
 70
    64
  0
VERTEX
  8
I-C2
  5
42C
 10
386.458387
 20
225.027116
 30
94.661756
 70
    64
  0
VERTEX
  8
I-C2
  5
42D
 10
386.458387
 20
237.527116
 30
94.661756
 70
    64
  0
VERTEX
  8
I-C2
  5
42E
 10
386.458387
 20
250.027116
 30
94.661756
 70
    64
  0
VERTEX
  8
I-C2
  5
42F
 10
400.737148
 20
225.027116
 30
84.66366
 70
    64
  0
VERTEX
  8
I-C2
  5
430
 10
400.737148
 20
237.527116
 30
84.66366
 70
    64
  0
VERTEX
  8
I-C2
  5
431
 10
400.737148
 20
250.027116
 30
84.66366
 70
    64
  0
VERTEX
  8
I-C2
  5
432
 10
413.062831
 20
225.027116
 30
72.337977
 70
    64
  0
VERTEX
  8
I-C2
  5
433
 10
413.062831
 20
237.527116
 30
72.337977
 70
    64
  0
VERTEX
  8
I-C2
  5
434
 10
413.062831
 20
250.027116
 30
72.337977
 70
    64
  0
VERTEX
  8
I-C2
  5
435
 10
423.060928
 20
225.027116
 30
58.059216
 70
    64
  0
VERTEX
  8
I-C2
  5
436
 10
423.060928
 20
237.527116
 30
58.059216
 70
    64
  0
VERTEX
  8
I-C2
  5
437
 10
423.060928
 20
250.027116
 30
58.059216
 70
    64
  0
VERTEX
  8
I-C2
  5
438
 10
430.427649
 20
225.027116
 30
42.26123
 70
    64
  0
VERTEX
  8
I-C2
  5
439
 10
430.427649
 20
237.527116
 30
42.26123
 70
    64
  0
VERTEX
  8
I-C2
  5
43A
 10
430.427649
 20
250.027116
 30
42.26123
 70
    64
  0
VERTEX
  8
I-C2
  5
43B
 10
434.939162
 20
225.027116
 30
25.424034
 70
    64
  0
VERTEX
  8
I-C2
  5
43C
 10
434.939162
 20
237.527116
 30
25.424034
 70
    64
  0
VERTEX
  8
I-C2
  5
43D
 10
434.939162
 20
250.027116
 30
25.424034
 70
    64
  0
VERTEX
  8
I-C2
  5
43E
 10
436.458387
 20
225.027116
 30
8.059216
 70
    64
  0
VERTEX
  8
I-C2
  5
43F
 10
436.458387
 20
237.527116
 30
8.059216
 70
    64
  0
VERTEX
  8
I-C2
  5
440
 10
436.458387
 20
250.027116
 30
8.059216
 70
    64
  0
VERTEX
  8
I-C2
  5
441
 10
434.939162
 20
225.027116
 30
-9.305602
 70
    64
  0
VERTEX
  8
I-C2
  5
442
 10
434.939162
 20
237.527116
 30
-9.305602
 70
    64
  0
VERTEX
  8
I-C2
  5
443
 10
434.939162
 20
250.027116
 30
-9.305602
 70
    64
  0
VERTEX
  8
I-C2
  5
444
 10
430.427649
 20
225.027116
 30
-26.142799
 70
    64
  0
VERTEX
  8
I-C2
  5
445
 10
430.427649
 20
237.527116
 30
-26.142799
 70
    64
  0
VERTEX
  8
I-C2
  5
446
 10
430.427649
 20
250.027116
 30
-26.142799
 70
    64
  0
VERTEX
  8
I-C2
  5
447
 10
423.060928
 20
225.027116
 30
-41.940784
 70
    64
  0
VERTEX
  8
I-C2
  5
448
 10
423.060928
 20
237.527116
 30
-41.940784
 70
    64
  0
VERTEX
  8
I-C2
  5
449
 10
423.060928
 20
250.027116
 30
-41.940784
 70
    64
  0
VERTEX
  8
I-C2
  5
44A
 10
413.062831
 20
225.027116
 30
-56.219545
 70
    64
  0
VERTEX
  8
I-C2
  5
44B
 10
413.062831
 20
237.527116
 30
-56.219545
 70
    64
  0
VERTEX
  8
I-C2
  5
44C
 10
413.062831
 20
250.027116
 30
-56.219545
 70
    64
  0
VERTEX
  8
I-C2
  5
44D
 10
400.737148
 20
225.027116
 30
-68.545228
 70
    64
  0
VERTEX
  8
I-C2
  5
44E
 10
400.737148
 20
237.527116
 30
-68.545228
 70
    64
  0
VERTEX
  8
I-C2
  5
44F
 10
400.737148
 20
250.027116
 30
-68.545228
 70
    64
  0
VERTEX
  8
I-C2
  5
450
 10
386.458387
 20
225.027116
 30
-78.543325
 70
    64
  0
VERTEX
  8
I-C2
  5
451
 10
386.458387
 20
237.527116
 30
-78.543325
 70
    64
  0
VERTEX
  8
I-C2
  5
452
 10
386.458387
 20
250.027116
 30
-78.543325
 70
    64
  0
VERTEX
  8
I-C2
  5
453
 10
370.660401
 20
225.027116
 30
-85.910046
 70
    64
  0
VERTEX
  8
I-C2
  5
454
 10
370.660401
 20
237.527116
 30
-85.910046
 70
    64
  0
VERTEX
  8
I-C2
  5
455
 10
370.660401
 20
250.027116
 30
-85.910046
 70
    64
  0
VERTEX
  8
I-C2
  5
456
 10
353.823205
 20
225.027116
 30
-90.421559
 70
    64
  0
VERTEX
  8
I-C2
  5
457
 10
353.823205
 20
237.527116
 30
-90.421559
 70
    64
  0
VERTEX
  8
I-C2
  5
458
 10
353.823205
 20
250.027116
 30
-90.421559
 70
    64
  0
SEQEND
  8
I-C2
  5
459
  0
POLYLINE
  8
I-C2
  5
45A
 66
     1
 10
0.0
 20
0.0
 30
0.0
 70
    17
 71
    36
 72
     3
  0
VERTEX
  8
I-C2
  5
45B
 10
336.458387
 20
220.027116
 30
-111.940784
 70
    64
  0
VERTEX
  8
I-C2
  5
45C
 10
336.458387
 20
220.027116
 30
-104.440784
 70
    64
  0
VERTEX
  8
I-C2
  5
45D
 10
336.458387
 20
220.027116
 30
-96.940784
 70
    64
  0
VERTEX
  8
I-C2
  5
45E
 10
315.620606
 20
220.027116
 30
-110.117715
 70
    64
  0
VERTEX
  8
I-C2
  5
45F
 10
316.922967
 20
220.027116
 30
-102.731656
 70
    64
  0
VERTEX
  8
I-C2
  5
460
 10
318.225328
 20
220.027116
 30
-95.345598
 70
    64
  0
VERTEX
  8
I-C2
  5
461
 10
295.41597
 20
220.027116
 30
-104.703899
 70
    64
  0
VERTEX
  8
I-C2
  5
462
 10
297.981121
 20
220.027116
 30
-97.656204
 70
    64
  0
VERTEX
  8
I-C2
  5
463
 10
300.546272
 20
220.027116
 30
-90.608509
 70
    64
  0
VERTEX
  8
I-C2
  5
464
 10
276.458387
 20
220.027116
 30
-95.863833
 70
    64
  0
VERTEX
  8
I-C2
  5
465
 10
280.208387
 20
220.027116
 30
-89.368642
 70
    64
  0
VERTEX
  8
I-C2
  5
466
 10
283.958387
 20
220.027116
 30
-82.873452
 70
    64
  0
VERTEX
  8
I-C2
  5
467
 10
259.323874
 20
220.027116
 30
-83.866117
 70
    64
  0
VERTEX
  8
I-C2
  5
468
 10
264.144781
 20
220.027116
 30
-78.120784
 70
    64
  0
VERTEX
  8
I-C2
  5
469
 10
268.965688
 20
220.027116
 30
-72.375451
 70
    64
  0
VERTEX
  8
I-C2
  5
46A
 10
244.533054
 20
220.027116
 30
-69.075297
 70
    64
  0
VERTEX
  8
I-C2
  5
46B
 10
250.278387
 20
220.027116
 30
-64.25439
 70
    64
  0
VERTEX
  8
I-C2
  5
46C
 10
256.023721
 20
220.027116
 30
-59.433483
 70
    64
  0
VERTEX
  8
I-C2
  5
46D
 10
232.535339
 20
220.027116
 30
-51.940784
 70
    64
  0
VERTEX
  8
I-C2
  5
46E
 10
239.030529
 20
220.027116
 30
-48.190784
 70
    64
  0
VERTEX
  8
I-C2
  5
46F
 10
245.52572
 20
220.027116
 30
-44.440784
 70
    64
  0
VERTEX
  8
I-C2
  5
470
 10
223.695273
 20
220.027116
 30
-32.983201
 70
    64
  0
VERTEX
  8
I-C2
  5
471
 10
230.742967
 20
220.027116
 30
-30.41805
 70
    64
  0
VERTEX
  8
I-C2
  5
472
 10
237.790662
 20
220.027116
 30
-27.852899
 70
    64
  0
VERTEX
  8
I-C2
  5
473
 10
218.281457
 20
220.027116
 30
-12.778566
 70
    64
  0
VERTEX
  8
I-C2
  5
474
 10
225.667515
 20
220.027116
 30
-11.476204
 70
    64
  0
VERTEX
  8
I-C2
  5
475
 10
233.053573
 20
220.027116
 30
-10.173843
 70
    64
  0
VERTEX
  8
I-C2
  5
476
 10
216.458387
 20
220.027116
 30
8.059216
 70
    64
  0
VERTEX
  8
I-C2
  5
477
 10
223.958387
 20
220.027116
 30
8.059216
 70
    64
  0
VERTEX
  8
I-C2
  5
478
 10
231.458387
 20
220.027116
 30
8.059216
 70
    64
  0
VERTEX
  8
I-C2
  5
479
 10
218.281457
 20
220.027116
 30
28.896997
 70
    64
  0
VERTEX
  8
I-C2
  5
47A
 10
225.667515
 20
220.027116
 30
27.594636
 70
    64
  0
VERTEX
  8
I-C2
  5
47B
 10
233.053573
 20
220.027116
 30
26.292274
 70
    64
  0
VERTEX
  8
I-C2
  5
47C
 10
223.695273
 20
220.027116
 30
49.101633
 70
    64
  0
VERTEX
  8
I-C2
  5
47D
 10
230.742967
 20
220.027116
 30
46.536482
 70
    64
  0
VERTEX
  8
I-C2
  5
47E
 10
237.790662
 20
220.027116
 30
43.971331
 70
    64
  0
VERTEX
  8
I-C2
  5
47F
 10
232.535339
 20
220.027116
 30
68.059216
 70
    64
  0
VERTEX
  8
I-C2
  5
480
 10
239.030529
 20
220.027116
 30
64.309216
 70
    64
  0
VERTEX
  8
I-C2
  5
481
 10
245.52572
 20
220.027116
 30
60.559216
 70
    64
  0
VERTEX
  8
I-C2
  5
482
 10
244.533054
 20
220.027116
 30
85.193729
 70
    64
  0
VERTEX
  8
I-C2
  5
483
 10
250.278387
 20
220.027116
 30
80.372822
 70
    64
  0
VERTEX
  8
I-C2
  5
484
 10
256.023721
 20
220.027116
 30
75.551915
 70
    64
  0
VERTEX
  8
I-C2
  5
485
 10
259.323874
 20
220.027116
 30
99.984549
 70
    64
  0
VERTEX
  8
I-C2
  5
486
 10
264.144781
 20
220.027116
 30
94.239216
 70
    64
  0
VERTEX
  8
I-C2
  5
487
 10
268.965688
 20
220.027116
 30
88.493882
 70
    64
  0
VERTEX
  8
I-C2
  5
488
 10
276.458387
 20
220.027116
 30
111.982264
 70
    64
  0
VERTEX
  8
I-C2
  5
489
 10
280.208387
 20
220.027116
 30
105.487074
 70
    64
  0
VERTEX
  8
I-C2
  5
48A
 10
283.958387
 20
220.027116
 30
98.991883
 70
    64
  0
VERTEX
  8
I-C2
  5
48B
 10
295.41597
 20
220.027116
 30
120.82233
 70
    64
  0
VERTEX
  8
I-C2
  5
48C
 10
297.981121
 20
220.027116
 30
113.774636
 70
    64
  0
VERTEX
  8
I-C2
  5
48D
 10
300.546272
 20
220.027116
 30
106.726941
 70
    64
  0
VERTEX
  8
I-C2
  5
48E
 10
315.620606
 20
220.027116
 30
126.236146
 70
    64
  0
VERTEX
  8
I-C2
  5
48F
 10
316.922967
 20
220.027116
 30
118.850088
 70
    64
  0
VERTEX
  8
I-C2
  5
490
 10
318.225328
 20
220.027116
 30
111.46403
 70
    64
  0
VERTEX
  8
I-C2
  5
491
 10
336.458387
 20
220.027116
 30
128.059216
 70
    64
  0
VERTEX
  8
I-C2
  5
492
 10
336.458387
 20
220.027116
 30
120.559216
 70
    64
  0
VERTEX
  8
I-C2
  5
493
 10
336.458387
 20
220.027116
 30
113.059216
 70
    64
  0
VERTEX
  8
I-C2
  5
494
 10
357.296168
 20
220.027116
 30
126.236146
 70
    64
  0
VERTEX
  8
I-C2
  5
495
 10
355.993807
 20
220.027116
 30
118.850088
 70
    64
  0
VERTEX
  8
I-C2
  5
496
 10
354.691446
 20
220.027116
 30
111.46403
 70
    64
  0
VERTEX
  8
I-C2
  5
497
 10
377.500804
 20
220.027116
 30
120.82233
 70
    64
  0
VERTEX
  8
I-C2
  5
498
 10
374.935653
 20
220.027116
 30
113.774636
 70
    64
  0
VERTEX
  8
I-C2
  5
499
 10
372.370502
 20
220.027116
 30
106.726941
 70
    64
  0
VERTEX
  8
I-C2
  5
49A
 10
396.458387
 20
220.027116
 30
111.982264
 70
    64
  0
VERTEX
  8
I-C2
  5
49B
 10
392.708387
 20
220.027116
 30
105.487074
 70
    64
  0
VERTEX
  8
I-C2
  5
49C
 10
388.958387
 20
220.027116
 30
98.991883
 70
    64
  0
VERTEX
  8
I-C2
  5
49D
 10
413.5929
 20
220.027116
 30
99.984549
 70
    64
  0
VERTEX
  8
I-C2
  5
49E
 10
408.771993
 20
220.027116
 30
94.239216
 70
    64
  0
VERTEX
  8
I-C2
  5
49F
 10
403.951086
 20
220.027116
 30
88.493882
 70
    64
  0
VERTEX
  8
I-C2
  5
4A0
 10
428.38372
 20
220.027116
 30
85.193729
 70
    64
  0
VERTEX
  8
I-C2
  5
4A1
 10
422.638387
 20
220.027116
 30
80.372822
 70
    64
  0
VERTEX
  8
I-C2
  5
4A2
 10
416.893054
 20
220.027116
 30
75.551915
 70
    64
  0
VERTEX
  8
I-C2
  5
4A3
 10
440.381436
 20
220.027116
 30
68.059216
 70
    64
  0
VERTEX
  8
I-C2
  5
4A4
 10
433.886245
 20
220.027116
 30
64.309216
 70
    64
  0
VERTEX
  8
I-C2
  5
4A5
 10
427.391055
 20
220.027116
 30
60.559216
 70
    64
  0
VERTEX
  8
I-C2
  5
4A6
 10
449.221502
 20
220.027116
 30
49.101633
 70
    64
  0
VERTEX
  8
I-C2
  5
4A7
 10
442.173807
 20
220.027116
 30
46.536482
 70
    64
  0
VERTEX
  8
I-C2
  5
4A8
 10
435.126112
 20
220.027116
 30
43.971331
 70
    64
  0
VERTEX
  8
I-C2
  5
4A9
 10
454.635317
 20
220.027116
 30
28.896997
 70
    64
  0
VERTEX
  8
I-C2
  5
4AA
 10
447.249259
 20
220.027116
 30
27.594636
 70
    64
  0
VERTEX
  8
I-C2
  5
4AB
 10
439.863201
 20
220.027116
 30
26.292274
 70
    64
  0
VERTEX
  8
I-C2
  5
4AC
 10
456.458387
 20
220.027116
 30
8.059216
 70
    64
  0
VERTEX
  8
I-C2
  5
4AD
 10
448.958387
 20
220.027116
 30
8.059216
 70
    64
  0
VERTEX
  8
I-C2
  5
4AE
 10
441.458387
 20
220.027116
 30
8.059216
 70
    64
  0
VERTEX
  8
I-C2
  5
4AF
 10
454.635317
 20
220.027116
 30
-12.778566
 70
    64
  0
VERTEX
  8
I-C2
  5
4B0
 10
447.249259
 20
220.027116
 30
-11.476204
 70
    64
  0
VERTEX
  8
I-C2
  5
4B1
 10
439.863201
 20
220.027116
 30
-10.173843
 70
    64
  0
VERTEX
  8
I-C2
  5
4B2
 10
449.221502
 20
220.027116
 30
-32.983201
 70
    64
  0
VERTEX
  8
I-C2
  5
4B3
 10
442.173807
 20
220.027116
 30
-30.41805
 70
    64
  0
VERTEX
  8
I-C2
  5
4B4
 10
435.126112
 20
220.027116
 30
-27.852899
 70
    64
  0
VERTEX
  8
I-C2
  5
4B5
 10
440.381436
 20
220.027116
 30
-51.940784
 70
    64
  0
VERTEX
  8
I-C2
  5
4B6
 10
433.886245
 20
220.027116
 30
-48.190784
 70
    64
  0
VERTEX
  8
I-C2
  5
4B7
 10
427.391055
 20
220.027116
 30
-44.440784
 70
    64
  0
VERTEX
  8
I-C2
  5
4B8
 10
428.38372
 20
220.027116
 30
-69.075297
 70
    64
  0
VERTEX
  8
I-C2
  5
4B9
 10
422.638387
 20
220.027116
 30
-64.25439
 70
    64
  0
VERTEX
  8
I-C2
  5
4BA
 10
416.893054
 20
220.027116
 30
-59.433483
 70
    64
  0
VERTEX
  8
I-C2
  5
4BB
 10
413.5929
 20
220.027116
 30
-83.866117
 70
    64
  0
VERTEX
  8
I-C2
  5
4BC
 10
408.771993
 20
220.027116
 30
-78.120784
 70
    64
  0
VERTEX
  8
I-C2
  5
4BD
 10
403.951086
 20
220.027116
 30
-72.375451
 70
    64
  0
VERTEX
  8
I-C2
  5
4BE
 10
396.458387
 20
220.027116
 30
-95.863833
 70
    64
  0
VERTEX
  8
I-C2
  5
4BF
 10
392.708387
 20
220.027116
 30
-89.368642
 70
    64
  0
VERTEX
  8
I-C2
  5
4C0
 10
388.958387
 20
220.027116
 30
-82.873452
 70
    64
  0
VERTEX
  8
I-C2
  5
4C1
 10
377.500804
 20
220.027116
 30
-104.703899
 70
    64
  0
VERTEX
  8
I-C2
  5
4C2
 10
374.935653
 20
220.027116
 30
-97.656204
 70
    64
  0
VERTEX
  8
I-C2
  5
4C3
 10
372.370502
 20
220.027116
 30
-90.608509
 70
    64
  0
VERTEX
  8
I-C2
  5
4C4
 10
357.296168
 20
220.027116
 30
-110.117715
 70
    64
  0
VERTEX
  8
I-C2
  5
4C5
 10
355.993807
 20
220.027116
 30
-102.731656
 70
    64
  0
VERTEX
  8
I-C2
  5
4C6
 10
354.691446
 20
220.027116
 30
-95.345598
 70
    64
  0
SEQEND
  8
I-C2
  5
4C7
  0
POLYLINE
  8
I-C2
  5
4C8
 66
     1
 10
0.0
 20
0.0
 30
0.0
 70
    17
 71
    36
 72
     3
  0
VERTEX
  8
I-C2
  5
4C9
 10
336.458387
 20
237.527116
 30
-116.940784
 70
    64
  0
VERTEX
  8
I-C2
  5
4CA
 10
336.458387
 20
228.777116
 30
-114.440784
 70
    64
  0
VERTEX
  8
I-C2
  5
4CB
 10
336.458387
 20
220.027116
 30
-111.940784
 70
    64
  0
VERTEX
  8
I-C2
  5
4CC
 10
314.752365
 20
237.527116
 30
-115.041753
 70
    64
  0
VERTEX
  8
I-C2
  5
4CD
 10
315.186485
 20
228.777116
 30
-112.579734
 70
    64
  0
VERTEX
  8
I-C2
  5
4CE
 10
315.620606
 20
220.027116
 30
-110.117715
 70
    64
  0
VERTEX
  8
I-C2
  5
4CF
 10
293.705869
 20
237.527116
 30
-109.402362
 70
    64
  0
VERTEX
  8
I-C2
  5
4D0
 10
294.56092
 20
228.777116
 30
-107.05313
 70
    64
  0
VERTEX
  8
I-C2
  5
4D1
 10
295.41597
 20
220.027116
 30
-104.703899
 70
    64
  0
VERTEX
  8
I-C2
  5
4D2
 10
273.958387
 20
237.527116
 30
-100.19396
 70
    64
  0
VERTEX
  8
I-C2
  5
4D3
 10
275.208387
 20
228.777116
 30
-98.028896
 70
    64
  0
VERTEX
  8
I-C2
  5
4D4
 10
276.458387
 20
220.027116
 30
-95.863833
 70
    64
  0
VERTEX
  8
I-C2
  5
4D5
 10
256.109936
 20
237.527116
 30
-87.69634
 70
    64
  0
VERTEX
  8
I-C2
  5
4D6
 10
257.716905
 20
228.777116
 30
-85.781228
 70
    64
  0
VERTEX
  8
I-C2
  5
4D7
 10
259.323874
 20
220.027116
 30
-83.866117
 70
    64
  0
VERTEX
  8
I-C2
  5
4D8
 10
240.702832
 20
237.527116
 30
-72.289235
 70
    64
  0
VERTEX
  8
I-C2
  5
4D9
 10
242.617943
 20
228.777116
 30
-70.682266
 70
    64
  0
VERTEX
  8
I-C2
  5
4DA
 10
244.533054
 20
220.027116
 30
-69.075297
 70
    64
  0
VERTEX
  8
I-C2
  5
4DB
 10
228.205212
 20
237.527116
 30
-54.440784
 70
    64
  0
VERTEX
  8
I-C2
  5
4DC
 10
230.370275
 20
228.777116
 30
-53.190784
 70
    64
  0
VERTEX
  8
I-C2
  5
4DD
 10
232.535339
 20
220.027116
 30
-51.940784
 70
    64
  0
VERTEX
  8
I-C2
  5
4DE
 10
218.99681
 20
237.527116
 30
-34.693302
 70
    64
  0
VERTEX
  8
I-C2
  5
4DF
 10
221.346041
 20
228.777116
 30
-33.838252
 70
    64
  0
VERTEX
  8
I-C2
  5
4E0
 10
223.695273
 20
220.027116
 30
-32.983201
 70
    64
  0
VERTEX
  8
I-C2
  5
4E1
 10
213.357418
 20
237.527116
 30
-13.646806
 70
    64
  0
VERTEX
  8
I-C2
  5
4E2
 10
215.819437
 20
228.777116
 30
-13.212686
 70
    64
  0
VERTEX
  8
I-C2
  5
4E3
 10
218.281457
 20
220.027116
 30
-12.778566
 70
    64
  0
VERTEX
  8
I-C2
  5
4E4
 10
211.458387
 20
237.527116
 30
8.059216
 70
    64
  0
VERTEX
  8
I-C2
  5
4E5
 10
213.958387
 20
228.777116
 30
8.059216
 70
    64
  0
VERTEX
  8
I-C2
  5
4E6
 10
216.458387
 20
220.027116
 30
8.059216
 70
    64
  0
VERTEX
  8
I-C2
  5
4E7
 10
213.357418
 20
237.527116
 30
29.765238
 70
    64
  0
VERTEX
  8
I-C2
  5
4E8
 10
215.819437
 20
228.777116
 30
29.331118
 70
    64
  0
VERTEX
  8
I-C2
  5
4E9
 10
218.281457
 20
220.027116
 30
28.896997
 70
    64
  0
VERTEX
  8
I-C2
  5
4EA
 10
218.99681
 20
237.527116
 30
50.811734
 70
    64
  0
VERTEX
  8
I-C2
  5
4EB
 10
221.346041
 20
228.777116
 30
49.956683
 70
    64
  0
VERTEX
  8
I-C2
  5
4EC
 10
223.695273
 20
220.027116
 30
49.101633
 70
    64
  0
VERTEX
  8
I-C2
  5
4ED
 10
228.205212
 20
237.527116
 30
70.559216
 70
    64
  0
VERTEX
  8
I-C2
  5
4EE
 10
230.370275
 20
228.777116
 30
69.309216
 70
    64
  0
VERTEX
  8
I-C2
  5
4EF
 10
232.535339
 20
220.027116
 30
68.059216
 70
    64
  0
VERTEX
  8
I-C2
  5
4F0
 10
240.702832
 20
237.527116
 30
88.407667
 70
    64
  0
VERTEX
  8
I-C2
  5
4F1
 10
242.617943
 20
228.777116
 30
86.800698
 70
    64
  0
VERTEX
  8
I-C2
  5
4F2
 10
244.533054
 20
220.027116
 30
85.193729
 70
    64
  0
VERTEX
  8
I-C2
  5
4F3
 10
256.109936
 20
237.527116
 30
103.814771
 70
    64
  0
VERTEX
  8
I-C2
  5
4F4
 10
257.716905
 20
228.777116
 30
101.89966
 70
    64
  0
VERTEX
  8
I-C2
  5
4F5
 10
259.323874
 20
220.027116
 30
99.984549
 70
    64
  0
VERTEX
  8
I-C2
  5
4F6
 10
273.958387
 20
237.527116
 30
116.312391
 70
    64
  0
VERTEX
  8
I-C2
  5
4F7
 10
275.208387
 20
228.777116
 30
114.147328
 70
    64
  0
VERTEX
  8
I-C2
  5
4F8
 10
276.458387
 20
220.027116
 30
111.982264
 70
    64
  0
VERTEX
  8
I-C2
  5
4F9
 10
293.705869
 20
237.527116
 30
125.520793
 70
    64
  0
VERTEX
  8
I-C2
  5
4FA
 10
294.56092
 20
228.777116
 30
123.171562
 70
    64
  0
VERTEX
  8
I-C2
  5
4FB
 10
295.41597
 20
220.027116
 30
120.82233
 70
    64
  0
VERTEX
  8
I-C2
  5
4FC
 10
314.752365
 20
237.527116
 30
131.160185
 70
    64
  0
VERTEX
  8
I-C2
  5
4FD
 10
315.186485
 20
228.777116
 30
128.698166
 70
    64
  0
VERTEX
  8
I-C2
  5
4FE
 10
315.620606
 20
220.027116
 30
126.236146
 70
    64
  0
VERTEX
  8
I-C2
  5
4FF
 10
336.458387
 20
237.527116
 30
133.059216
 70
    64
  0
VERTEX
  8
I-C2
  5
500
 10
336.458387
 20
228.777116
 30
130.559216
 70
    64
  0
VERTEX
  8
I-C2
  5
501
 10
336.458387
 20
220.027116
 30
128.059216
 70
    64
  0
VERTEX
  8
I-C2
  5
502
 10
358.164409
 20
237.527116
 30
131.160185
 70
    64
  0
VERTEX
  8
I-C2
  5
503
 10
357.730289
 20
228.777116
 30
128.698166
 70
    64
  0
VERTEX
  8
I-C2
  5
504
 10
357.296168
 20
220.027116
 30
126.236146
 70
    64
  0
VERTEX
  8
I-C2
  5
505
 10
379.210905
 20
237.527116
 30
125.520793
 70
    64
  0
VERTEX
  8
I-C2
  5
506
 10
378.355855
 20
228.777116
 30
123.171562
 70
    64
  0
VERTEX
  8
I-C2
  5
507
 10
377.500804
 20
220.027116
 30
120.82233
 70
    64
  0
VERTEX
  8
I-C2
  5
508
 10
398.958387
 20
237.527116
 30
116.312391
 70
    64
  0
VERTEX
  8
I-C2
  5
509
 10
397.708387
 20
228.777116
 30
114.147328
 70
    64
  0
VERTEX
  8
I-C2
  5
50A
 10
396.458387
 20
220.027116
 30
111.982264
 70
    64
  0
VERTEX
  8
I-C2
  5
50B
 10
416.806838
 20
237.527116
 30
103.814771
 70
    64
  0
VERTEX
  8
I-C2
  5
50C
 10
415.199869
 20
228.777116
 30
101.89966
 70
    64
  0
VERTEX
  8
I-C2
  5
50D
 10
413.5929
 20
220.027116
 30
99.984549
 70
    64
  0
VERTEX
  8
I-C2
  5
50E
 10
432.213943
 20
237.527116
 30
88.407667
 70
    64
  0
VERTEX
  8
I-C2
  5
50F
 10
430.298831
 20
228.777116
 30
86.800698
 70
    64
  0
VERTEX
  8
I-C2
  5
510
 10
428.38372
 20
220.027116
 30
85.193729
 70
    64
  0
VERTEX
  8
I-C2
  5
511
 10
444.711563
 20
237.527116
 30
70.559216
 70
    64
  0
VERTEX
  8
I-C2
  5
512
 10
442.546499
 20
228.777116
 30
69.309216
 70
    64
  0
VERTEX
  8
I-C2
  5
513
 10
440.381436
 20
220.027116
 30
68.059216
 70
    64
  0
VERTEX
  8
I-C2
  5
514
 10
453.919965
 20
237.527116
 30
50.811734
 70
    64
  0
VERTEX
  8
I-C2
  5
515
 10
451.570733
 20
228.777116
 30
49.956683
 70
    64
  0
VERTEX
  8
I-C2
  5
516
 10
449.221502
 20
220.027116
 30
49.101633
 70
    64
  0
VERTEX
  8
I-C2
  5
517
 10
459.559356
 20
237.527116
 30
29.765238
 70
    64
  0
VERTEX
  8
I-C2
  5
518
 10
457.097337
 20
228.777116
 30
29.331118
 70
    64
  0
VERTEX
  8
I-C2
  5
519
 10
454.635317
 20
220.027116
 30
28.896997
 70
    64
  0
VERTEX
  8
I-C2
  5
51A
 10
461.458387
 20
237.527116
 30
8.059216
 70
    64
  0
VERTEX
  8
I-C2
  5
51B
 10
458.958387
 20
228.777116
 30
8.059216
 70
    64
  0
VERTEX
  8
I-C2
  5
51C
 10
456.458387
 20
220.027116
 30
8.059216
 70
    64
  0
VERTEX
  8
I-C2
  5
51D
 10
459.559356
 20
237.527116
 30
-13.646806
 70
    64
  0
VERTEX
  8
I-C2
  5
51E
 10
457.097337
 20
228.777116
 30
-13.212686
 70
    64
  0
VERTEX
  8
I-C2
  5
51F
 10
454.635317
 20
220.027116
 30
-12.778566
 70
    64
  0
VERTEX
  8
I-C2
  5
520
 10
453.919965
 20
237.527116
 30
-34.693302
 70
    64
  0
VERTEX
  8
I-C2
  5
521
 10
451.570733
 20
228.777116
 30
-33.838252
 70
    64
  0
VERTEX
  8
I-C2
  5
522
 10
449.221502
 20
220.027116
 30
-32.983201
 70
    64
  0
VERTEX
  8
I-C2
  5
523
 10
444.711563
 20
237.527116
 30
-54.440784
 70
    64
  0
VERTEX
  8
I-C2
  5
524
 10
442.546499
 20
228.777116
 30
-53.190784
 70
    64
  0
VERTEX
  8
I-C2
  5
525
 10
440.381436
 20
220.027116
 30
-51.940784
 70
    64
  0
VERTEX
  8
I-C2
  5
526
 10
432.213943
 20
237.527116
 30
-72.289235
 70
    64
  0
VERTEX
  8
I-C2
  5
527
 10
430.298831
 20
228.777116
 30
-70.682266
 70
    64
  0
VERTEX
  8
I-C2
  5
528
 10
428.38372
 20
220.027116
 30
-69.075297
 70
    64
  0
VERTEX
  8
I-C2
  5
529
 10
416.806838
 20
237.527116
 30
-87.69634
 70
    64
  0
VERTEX
  8
I-C2
  5
52A
 10
415.199869
 20
228.777116
 30
-85.781228
 70
    64
  0
VERTEX
  8
I-C2
  5
52B
 10
413.5929
 20
220.027116
 30
-83.866117
 70
    64
  0
VERTEX
  8
I-C2
  5
52C
 10
398.958387
 20
237.527116
 30
-100.19396
 70
    64
  0
VERTEX
  8
I-C2
  5
52D
 10
397.708387
 20
228.777116
 30
-98.028896
 70
    64
  0
VERTEX
  8
I-C2
  5
52E
 10
396.458387
 20
220.027116
 30
-95.863833
 70
    64
  0
VERTEX
  8
I-C2
  5
52F
 10
379.210905
 20
237.527116
 30
-109.402362
 70
    64
  0
VERTEX
  8
I-C2
  5
530
 10
378.355855
 20
228.777116
 30
-107.05313
 70
    64
  0
VERTEX
  8
I-C2
  5
531
 10
377.500804
 20
220.027116
 30
-104.703899
 70
    64
  0
VERTEX
  8
I-C2
  5
532
 10
358.164409
 20
237.527116
 30
-115.041753
 70
    64
  0
VERTEX
  8
I-C2
  5
533
 10
357.730289
 20
228.777116
 30
-112.579734
 70
    64
  0
VERTEX
  8
I-C2
  5
534
 10
357.296168
 20
220.027116
 30
-110.117715
 70
    64
  0
SEQEND
  8
I-C2
  5
535
  0
POLYLINE
  8
I-C2
  5
536
 66
     1
 10
0.0
 20
0.0
 30
0.0
 70
    17
 71
    36
 72
     3
  0
VERTEX
  8
I-C2
  5
537
 10
336.458387
 20
237.527116
 30
-119.940784
 70
    64
  0
VERTEX
  8
I-C2
  5
538
 10
336.458387
 20
237.527116
 30
-118.440784
 70
    64
  0
VERTEX
  8
I-C2
  5
539
 10
336.458387
 20
237.527116
 30
-116.940784
 70
    64
  0
VERTEX
  8
I-C2
  5
53A
 10
314.23142
 20
237.527116
 30
-117.996177
 70
    64
  0
VERTEX
  8
I-C2
  5
53B
 10
314.491893
 20
237.527116
 30
-116.518965
 70
    64
  0
VERTEX
  8
I-C2
  5
53C
 10
314.752365
 20
237.527116
 30
-115.041753
 70
    64
  0
VERTEX
  8
I-C2
  5
53D
 10
292.679809
 20
237.527116
 30
-112.22144
 70
    64
  0
VERTEX
  8
I-C2
  5
53E
 10
293.192839
 20
237.527116
 30
-110.811901
 70
    64
  0
VERTEX
  8
I-C2
  5
53F
 10
293.705869
 20
237.527116
 30
-109.402362
 70
    64
  0
VERTEX
  8
I-C2
  5
540
 10
272.458387
 20
237.527116
 30
-102.792036
 70
    64
  0
VERTEX
  8
I-C2
  5
541
 10
273.208387
 20
237.527116
 30
-101.492998
 70
    64
  0
VERTEX
  8
I-C2
  5
542
 10
273.958387
 20
237.527116
 30
-100.19396
 70
    64
  0
VERTEX
  8
I-C2
  5
543
 10
254.181573
 20
237.527116
 30
-89.994473
 70
    64
  0
VERTEX
  8
I-C2
  5
544
 10
255.145755
 20
237.527116
 30
-88.845406
 70
    64
  0
VERTEX
  8
I-C2
  5
545
 10
256.109936
 20
237.527116
 30
-87.69634
 70
    64
  0
VERTEX
  8
I-C2
  5
546
 10
238.404698
 20
237.527116
 30
-74.217598
 70
    64
  0
VERTEX
  8
I-C2
  5
547
 10
239.553765
 20
237.527116
 30
-73.253417
 70
    64
  0
VERTEX
  8
I-C2
  5
548
 10
240.702832
 20
237.527116
 30
-72.289235
 70
    64
  0
VERTEX
  8
I-C2
  5
549
 10
225.607135
 20
237.527116
 30
-55.940784
 70
    64
  0
VERTEX
  8
I-C2
  5
54A
 10
226.906174
 20
237.527116
 30
-55.190784
 70
    64
  0
VERTEX
  8
I-C2
  5
54B
 10
228.205212
 20
237.527116
 30
-54.440784
 70
    64
  0
VERTEX
  8
I-C2
  5
54C
 10
216.177732
 20
237.527116
 30
-35.719363
 70
    64
  0
VERTEX
  8
I-C2
  5
54D
 10
217.587271
 20
237.527116
 30
-35.206332
 70
    64
  0
VERTEX
  8
I-C2
  5
54E
 10
218.99681
 20
237.527116
 30
-34.693302
 70
    64
  0
VERTEX
  8
I-C2
  5
54F
 10
210.402995
 20
237.527116
 30
-14.167751
 70
    64
  0
VERTEX
  8
I-C2
  5
550
 10
211.880206
 20
237.527116
 30
-13.907279
 70
    64
  0
VERTEX
  8
I-C2
  5
551
 10
213.357418
 20
237.527116
 30
-13.646806
 70
    64
  0
VERTEX
  8
I-C2
  5
552
 10
208.458387
 20
237.527116
 30
8.059216
 70
    64
  0
VERTEX
  8
I-C2
  5
553
 10
209.958387
 20
237.527116
 30
8.059216
 70
    64
  0
VERTEX
  8
I-C2
  5
554
 10
211.458387
 20
237.527116
 30
8.059216
 70
    64
  0
VERTEX
  8
I-C2
  5
555
 10
210.402995
 20
237.527116
 30
30.286183
 70
    64
  0
VERTEX
  8
I-C2
  5
556
 10
211.880206
 20
237.527116
 30
30.02571
 70
    64
  0
VERTEX
  8
I-C2
  5
557
 10
213.357418
 20
237.527116
 30
29.765238
 70
    64
  0
VERTEX
  8
I-C2
  5
558
 10
216.177732
 20
237.527116
 30
51.837794
 70
    64
  0
VERTEX
  8
I-C2
  5
559
 10
217.587271
 20
237.527116
 30
51.324764
 70
    64
  0
VERTEX
  8
I-C2
  5
55A
 10
218.99681
 20
237.527116
 30
50.811734
 70
    64
  0
VERTEX
  8
I-C2
  5
55B
 10
225.607135
 20
237.527116
 30
72.059216
 70
    64
  0
VERTEX
  8
I-C2
  5
55C
 10
226.906174
 20
237.527116
 30
71.309216
 70
    64
  0
VERTEX
  8
I-C2
  5
55D
 10
228.205212
 20
237.527116
 30
70.559216
 70
    64
  0
VERTEX
  8
I-C2
  5
55E
 10
238.404698
 20
237.527116
 30
90.33603
 70
    64
  0
VERTEX
  8
I-C2
  5
55F
 10
239.553765
 20
237.527116
 30
89.371848
 70
    64
  0
VERTEX
  8
I-C2
  5
560
 10
240.702832
 20
237.527116
 30
88.407667
 70
    64
  0
VERTEX
  8
I-C2
  5
561
 10
254.181573
 20
237.527116
 30
106.112905
 70
    64
  0
VERTEX
  8
I-C2
  5
562
 10
255.145755
 20
237.527116
 30
104.963838
 70
    64
  0
VERTEX
  8
I-C2
  5
563
 10
256.109936
 20
237.527116
 30
103.814771
 70
    64
  0
VERTEX
  8
I-C2
  5
564
 10
272.458387
 20
237.527116
 30
118.910468
 70
    64
  0
VERTEX
  8
I-C2
  5
565
 10
273.208387
 20
237.527116
 30
117.611429
 70
    64
  0
VERTEX
  8
I-C2
  5
566
 10
273.958387
 20
237.527116
 30
116.312391
 70
    64
  0
VERTEX
  8
I-C2
  5
567
 10
292.679809
 20
237.527116
 30
128.339871
 70
    64
  0
VERTEX
  8
I-C2
  5
568
 10
293.192839
 20
237.527116
 30
126.930332
 70
    64
  0
VERTEX
  8
I-C2
  5
569
 10
293.705869
 20
237.527116
 30
125.520793
 70
    64
  0
VERTEX
  8
I-C2
  5
56A
 10
314.23142
 20
237.527116
 30
134.114608
 70
    64
  0
VERTEX
  8
I-C2
  5
56B
 10
314.491893
 20
237.527116
 30
132.637397
 70
    64
  0
VERTEX
  8
I-C2
  5
56C
 10
314.752365
 20
237.527116
 30
131.160185
 70
    64
  0
VERTEX
  8
I-C2
  5
56D
 10
336.458387
 20
237.527116
 30
136.059216
 70
    64
  0
VERTEX
  8
I-C2
  5
56E
 10
336.458387
 20
237.527116
 30
134.559216
 70
    64
  0
VERTEX
  8
I-C2
  5
56F
 10
336.458387
 20
237.527116
 30
133.059216
 70
    64
  0
VERTEX
  8
I-C2
  5
570
 10
358.685354
 20
237.527116
 30
134.114608
 70
    64
  0
VERTEX
  8
I-C2
  5
571
 10
358.424882
 20
237.527116
 30
132.637397
 70
    64
  0
VERTEX
  8
I-C2
  5
572
 10
358.164409
 20
237.527116
 30
131.160185
 70
    64
  0
VERTEX
  8
I-C2
  5
573
 10
380.236965
 20
237.527116
 30
128.339871
 70
    64
  0
VERTEX
  8
I-C2
  5
574
 10
379.723935
 20
237.527116
 30
126.930332
 70
    64
  0
VERTEX
  8
I-C2
  5
575
 10
379.210905
 20
237.527116
 30
125.520793
 70
    64
  0
VERTEX
  8
I-C2
  5
576
 10
400.458387
 20
237.527116
 30
118.910468
 70
    64
  0
VERTEX
  8
I-C2
  5
577
 10
399.708387
 20
237.527116
 30
117.611429
 70
    64
  0
VERTEX
  8
I-C2
  5
578
 10
398.958387
 20
237.527116
 30
116.312391
 70
    64
  0
VERTEX
  8
I-C2
  5
579
 10
418.735201
 20
237.527116
 30
106.112905
 70
    64
  0
VERTEX
  8
I-C2
  5
57A
 10
417.77102
 20
237.527116
 30
104.963838
 70
    64
  0
VERTEX
  8
I-C2
  5
57B
 10
416.806838
 20
237.527116
 30
103.814771
 70
    64
  0
VERTEX
  8
I-C2
  5
57C
 10
434.512076
 20
237.527116
 30
90.33603
 70
    64
  0
VERTEX
  8
I-C2
  5
57D
 10
433.363009
 20
237.527116
 30
89.371848
 70
    64
  0
VERTEX
  8
I-C2
  5
57E
 10
432.213943
 20
237.527116
 30
88.407667
 70
    64
  0
VERTEX
  8
I-C2
  5
57F
 10
447.309639
 20
237.527116
 30
72.059216
 70
    64
  0
VERTEX
  8
I-C2
  5
580
 10
446.010601
 20
237.527116
 30
71.309216
 70
    64
  0
VERTEX
  8
I-C2
  5
581
 10
444.711563
 20
237.527116
 30
70.559216
 70
    64
  0
VERTEX
  8
I-C2
  5
582
 10
456.739043
 20
237.527116
 30
51.837794
 70
    64
  0
VERTEX
  8
I-C2
  5
583
 10
455.329504
 20
237.527116
 30
51.324764
 70
    64
  0
VERTEX
  8
I-C2
  5
584
 10
453.919965
 20
237.527116
 30
50.811734
 70
    64
  0
VERTEX
  8
I-C2
  5
585
 10
462.51378
 20
237.527116
 30
30.286183
 70
    64
  0
VERTEX
  8
I-C2
  5
586
 10
461.036568
 20
237.527116
 30
30.02571
 70
    64
  0
VERTEX
  8
I-C2
  5
587
 10
459.559356
 20
237.527116
 30
29.765238
 70
    64
  0
VERTEX
  8
I-C2
  5
588
 10
464.458387
 20
237.527116
 30
8.059216
 70
    64
  0
VERTEX
  8
I-C2
  5
589
 10
462.958387
 20
237.527116
 30
8.059216
 70
    64
  0
VERTEX
  8
I-C2
  5
58A
 10
461.458387
 20
237.527116
 30
8.059216
 70
    64
  0
VERTEX
  8
I-C2
  5
58B
 10
462.51378
 20
237.527116
 30
-14.167751
 70
    64
  0
VERTEX
  8
I-C2
  5
58C
 10
461.036568
 20
237.527116
 30
-13.907279
 70
    64
  0
VERTEX
  8
I-C2
  5
58D
 10
459.559356
 20
237.527116
 30
-13.646806
 70
    64
  0
VERTEX
  8
I-C2
  5
58E
 10
456.739043
 20
237.527116
 30
-35.719363
 70
    64
  0
VERTEX
  8
I-C2
  5
58F
 10
455.329504
 20
237.527116
 30
-35.206332
 70
    64
  0
VERTEX
  8
I-C2
  5
590
 10
453.919965
 20
237.527116
 30
-34.693302
 70
    64
  0
VERTEX
  8
I-C2
  5
591
 10
447.309639
 20
237.527116
 30
-55.940784
 70
    64
  0
VERTEX
  8
I-C2
  5
592
 10
446.010601
 20
237.527116
 30
-55.190784
 70
    64
  0
VERTEX
  8
I-C2
  5
593
 10
444.711563
 20
237.527116
 30
-54.440784
 70
    64
  0
VERTEX
  8
I-C2
  5
594
 10
434.512076
 20
237.527116
 30
-74.217598
 70
    64
  0
VERTEX
  8
I-C2
  5
595
 10
433.363009
 20
237.527116
 30
-73.253417
 70
    64
  0
VERTEX
  8
I-C2
  5
596
 10
432.213943
 20
237.527116
 30
-72.289235
 70
    64
  0
VERTEX
  8
I-C2
  5
597
 10
418.735201
 20
237.527116
 30
-89.994473
 70
    64
  0
VERTEX
  8
I-C2
  5
598
 10
417.77102
 20
237.527116
 30
-88.845406
 70
    64
  0
VERTEX
  8
I-C2
  5
599
 10
416.806838
 20
237.527116
 30
-87.69634
 70
    64
  0
VERTEX
  8
I-C2
  5
59A
 10
400.458387
 20
237.527116
 30
-102.792036
 70
    64
  0
VERTEX
  8
I-C2
  5
59B
 10
399.708387
 20
237.527116
 30
-101.492998
 70
    64
  0
VERTEX
  8
I-C2
  5
59C
 10
398.958387
 20
237.527116
 30
-100.19396
 70
    64
  0
VERTEX
  8
I-C2
  5
59D
 10
380.236965
 20
237.527116
 30
-112.22144
 70
    64
  0
VERTEX
  8
I-C2
  5
59E
 10
379.723935
 20
237.527116
 30
-110.811901
 70
    64
  0
VERTEX
  8
I-C2
  5
59F
 10
379.210905
 20
237.527116
 30
-109.402362
 70
    64
  0
VERTEX
  8
I-C2
  5
5A0
 10
358.685354
 20
237.527116
 30
-117.996177
 70
    64
  0
VERTEX
  8
I-C2
  5
5A1
 10
358.424882
 20
237.527116
 30
-116.518965
 70
    64
  0
VERTEX
  8
I-C2
  5
5A2
 10
358.164409
 20
237.527116
 30
-115.041753
 70
    64
  0
SEQEND
  8
I-C2
  5
5A3
  0
POLYLINE
  8
I-C2
  5
5A4
 66
     1
 10
0.0
 20
0.0
 30
0.0
 70
    17
 71
    36
 72
     3
  0
VERTEX
  8
I-C2
  5
5A5
 10
336.458387
 20
237.527116
 30
-119.940784
 70
    64
  0
VERTEX
  8
I-C2
  5
5A6
 10
336.458387
 20
246.277116
 30
-122.440784
 70
    64
  0
VERTEX
  8
I-C2
  5
5A7
 10
336.458387
 20
255.027116
 30
-124.940784
 70
    64
  0
VERTEX
  8
I-C2
  5
5A8
 10
314.23142
 20
237.527116
 30
-117.996177
 70
    64
  0
VERTEX
  8
I-C2
  5
5A9
 10
313.7973
 20
246.277116
 30
-120.458196
 70
    64
  0
VERTEX
  8
I-C2
  5
5AA
 10
313.36318
 20
255.027116
 30
-122.920215
 70
    64
  0
VERTEX
  8
I-C2
  5
5AB
 10
292.679809
 20
237.527116
 30
-112.22144
 70
    64
  0
VERTEX
  8
I-C2
  5
5AC
 10
291.824758
 20
246.277116
 30
-114.570671
 70
    64
  0
VERTEX
  8
I-C2
  5
5AD
 10
290.969708
 20
255.027116
 30
-116.919903
 70
    64
  0
VERTEX
  8
I-C2
  5
5AE
 10
272.458387
 20
237.527116
 30
-102.792036
 70
    64
  0
VERTEX
  8
I-C2
  5
5AF
 10
271.208387
 20
246.277116
 30
-104.957099
 70
    64
  0
VERTEX
  8
I-C2
  5
5B0
 10
269.958387
 20
255.027116
 30
-107.122163
 70
    64
  0
VERTEX
  8
I-C2
  5
5B1
 10
254.181573
 20
237.527116
 30
-89.994473
 70
    64
  0
VERTEX
  8
I-C2
  5
5B2
 10
252.574604
 20
246.277116
 30
-91.909584
 70
    64
  0
VERTEX
  8
I-C2
  5
5B3
 10
250.967635
 20
255.027116
 30
-93.824695
 70
    64
  0
VERTEX
  8
I-C2
  5
5B4
 10
238.404698
 20
237.527116
 30
-74.217598
 70
    64
  0
VERTEX
  8
I-C2
  5
5B5
 10
236.489587
 20
246.277116
 30
-75.824567
 70
    64
  0
VERTEX
  8
I-C2
  5
5B6
 10
234.574476
 20
255.027116
 30
-77.431536
 70
    64
  0
VERTEX
  8
I-C2
  5
5B7
 10
225.607135
 20
237.527116
 30
-55.940784
 70
    64
  0
VERTEX
  8
I-C2
  5
5B8
 10
223.442072
 20
246.277116
 30
-57.190784
 70
    64
  0
VERTEX
  8
I-C2
  5
5B9
 10
221.277008
 20
255.027116
 30
-58.440784
 70
    64
  0
VERTEX
  8
I-C2
  5
5BA
 10
216.177732
 20
237.527116
 30
-35.719363
 70
    64
  0
VERTEX
  8
I-C2
  5
5BB
 10
213.8285
 20
246.277116
 30
-36.574413
 70
    64
  0
VERTEX
  8
I-C2
  5
5BC
 10
211.479269
 20
255.027116
 30
-37.429463
 70
    64
  0
VERTEX
  8
I-C2
  5
5BD
 10
210.402995
 20
237.527116
 30
-14.167751
 70
    64
  0
VERTEX
  8
I-C2
  5
5BE
 10
207.940975
 20
246.277116
 30
-14.601871
 70
    64
  0
VERTEX
  8
I-C2
  5
5BF
 10
205.478956
 20
255.027116
 30
-15.035992
 70
    64
  0
VERTEX
  8
I-C2
  5
5C0
 10
208.458387
 20
237.527116
 30
8.059216
 70
    64
  0
VERTEX
  8
I-C2
  5
5C1
 10
205.958387
 20
246.277116
 30
8.059216
 70
    64
  0
VERTEX
  8
I-C2
  5
5C2
 10
203.458387
 20
255.027116
 30
8.059216
 70
    64
  0
VERTEX
  8
I-C2
  5
5C3
 10
210.402995
 20
237.527116
 30
30.286183
 70
    64
  0
VERTEX
  8
I-C2
  5
5C4
 10
207.940975
 20
246.277116
 30
30.720303
 70
    64
  0
VERTEX
  8
I-C2
  5
5C5
 10
205.478956
 20
255.027116
 30
31.154423
 70
    64
  0
VERTEX
  8
I-C2
  5
5C6
 10
216.177732
 20
237.527116
 30
51.837794
 70
    64
  0
VERTEX
  8
I-C2
  5
5C7
 10
213.8285
 20
246.277116
 30
52.692845
 70
    64
  0
VERTEX
  8
I-C2
  5
5C8
 10
211.479269
 20
255.027116
 30
53.547895
 70
    64
  0
VERTEX
  8
I-C2
  5
5C9
 10
225.607135
 20
237.527116
 30
72.059216
 70
    64
  0
VERTEX
  8
I-C2
  5
5CA
 10
223.442072
 20
246.277116
 30
73.309216
 70
    64
  0
VERTEX
  8
I-C2
  5
5CB
 10
221.277008
 20
255.027116
 30
74.559216
 70
    64
  0
VERTEX
  8
I-C2
  5
5CC
 10
238.404698
 20
237.527116
 30
90.33603
 70
    64
  0
VERTEX
  8
I-C2
  5
5CD
 10
236.489587
 20
246.277116
 30
91.942999
 70
    64
  0
VERTEX
  8
I-C2
  5
5CE
 10
234.574476
 20
255.027116
 30
93.549968
 70
    64
  0
VERTEX
  8
I-C2
  5
5CF
 10
254.181573
 20
237.527116
 30
106.112905
 70
    64
  0
VERTEX
  8
I-C2
  5
5D0
 10
252.574604
 20
246.277116
 30
108.028016
 70
    64
  0
VERTEX
  8
I-C2
  5
5D1
 10
250.967635
 20
255.027116
 30
109.943127
 70
    64
  0
VERTEX
  8
I-C2
  5
5D2
 10
272.458387
 20
237.527116
 30
118.910468
 70
    64
  0
VERTEX
  8
I-C2
  5
5D3
 10
271.208387
 20
246.277116
 30
121.075531
 70
    64
  0
VERTEX
  8
I-C2
  5
5D4
 10
269.958387
 20
255.027116
 30
123.240595
 70
    64
  0
VERTEX
  8
I-C2
  5
5D5
 10
292.679809
 20
237.527116
 30
128.339871
 70
    64
  0
VERTEX
  8
I-C2
  5
5D6
 10
291.824758
 20
246.277116
 30
130.689103
 70
    64
  0
VERTEX
  8
I-C2
  5
5D7
 10
290.969708
 20
255.027116
 30
133.038334
 70
    64
  0
VERTEX
  8
I-C2
  5
5D8
 10
314.23142
 20
237.527116
 30
134.114608
 70
    64
  0
VERTEX
  8
I-C2
  5
5D9
 10
313.7973
 20
246.277116
 30
136.576628
 70
    64
  0
VERTEX
  8
I-C2
  5
5DA
 10
313.36318
 20
255.027116
 30
139.038647
 70
    64
  0
VERTEX
  8
I-C2
  5
5DB
 10
336.458387
 20
237.527116
 30
136.059216
 70
    64
  0
VERTEX
  8
I-C2
  5
5DC
 10
336.458387
 20
246.277116
 30
138.559216
 70
    64
  0
VERTEX
  8
I-C2
  5
5DD
 10
336.458387
 20
255.027116
 30
141.059216
 70
    64
  0
VERTEX
  8
I-C2
  5
5DE
 10
358.685354
 20
237.527116
 30
134.114608
 70
    64
  0
VERTEX
  8
I-C2
  5
5DF
 10
359.119474
 20
246.277116
 30
136.576628
 70
    64
  0
VERTEX
  8
I-C2
  5
5E0
 10
359.553595
 20
255.027116
 30
139.038647
 70
    64
  0
VERTEX
  8
I-C2
  5
5E1
 10
380.236965
 20
237.527116
 30
128.339871
 70
    64
  0
VERTEX
  8
I-C2
  5
5E2
 10
381.092016
 20
246.277116
 30
130.689103
 70
    64
  0
VERTEX
  8
I-C2
  5
5E3
 10
381.947066
 20
255.027116
 30
133.038334
 70
    64
  0
VERTEX
  8
I-C2
  5
5E4
 10
400.458387
 20
237.527116
 30
118.910468
 70
    64
  0
VERTEX
  8
I-C2
  5
5E5
 10
401.708387
 20
246.277116
 30
121.075531
 70
    64
  0
VERTEX
  8
I-C2
  5
5E6
 10
402.958387
 20
255.027116
 30
123.240595
 70
    64
  0
VERTEX
  8
I-C2
  5
5E7
 10
418.735201
 20
237.527116
 30
106.112905
 70
    64
  0
VERTEX
  8
I-C2
  5
5E8
 10
420.34217
 20
246.277116
 30
108.028016
 70
    64
  0
VERTEX
  8
I-C2
  5
5E9
 10
421.949139
 20
255.027116
 30
109.943127
 70
    64
  0
VERTEX
  8
I-C2
  5
5EA
 10
434.512076
 20
237.527116
 30
90.33603
 70
    64
  0
VERTEX
  8
I-C2
  5
5EB
 10
436.427187
 20
246.277116
 30
91.942999
 70
    64
  0
VERTEX
  8
I-C2
  5
5EC
 10
438.342298
 20
255.027116
 30
93.549968
 70
    64
  0
VERTEX
  8
I-C2
  5
5ED
 10
447.309639
 20
237.527116
 30
72.059216
 70
    64
  0
VERTEX
  8
I-C2
  5
5EE
 10
449.474702
 20
246.277116
 30
73.309216
 70
    64
  0
VERTEX
  8
I-C2
  5
5EF
 10
451.639766
 20
255.027116
 30
74.559216
 70
    64
  0
VERTEX
  8
I-C2
  5
5F0
 10
456.739043
 20
237.527116
 30
51.837794
 70
    64
  0
VERTEX
  8
I-C2
  5
5F1
 10
459.088274
 20
246.277116
 30
52.692845
 70
    64
  0
VERTEX
  8
I-C2
  5
5F2
 10
461.437506
 20
255.027116
 30
53.547895
 70
    64
  0
VERTEX
  8
I-C2
  5
5F3
 10
462.51378
 20
237.527116
 30
30.286183
 70
    64
  0
VERTEX
  8
I-C2
  5
5F4
 10
464.975799
 20
246.277116
 30
30.720303
 70
    64
  0
VERTEX
  8
I-C2
  5
5F5
 10
467.437818
 20
255.027116
 30
31.154423
 70
    64
  0
VERTEX
  8
I-C2
  5
5F6
 10
464.458387
 20
237.527116
 30
8.059216
 70
    64
  0
VERTEX
  8
I-C2
  5
5F7
 10
466.958387
 20
246.277116
 30
8.059216
 70
    64
  0
VERTEX
  8
I-C2
  5
5F8
 10
469.458387
 20
255.027116
 30
8.059216
 70
    64
  0
VERTEX
  8
I-C2
  5
5F9
 10
462.51378
 20
237.527116
 30
-14.167751
 70
    64
  0
VERTEX
  8
I-C2
  5
5FA
 10
464.975799
 20
246.277116
 30
-14.601871
 70
    64
  0
VERTEX
  8
I-C2
  5
5FB
 10
467.437818
 20
255.027116
 30
-15.035992
 70
    64
  0
VERTEX
  8
I-C2
  5
5FC
 10
456.739043
 20
237.527116
 30
-35.719363
 70
    64
  0
VERTEX
  8
I-C2
  5
5FD
 10
459.088274
 20
246.277116
 30
-36.574413
 70
    64
  0
VERTEX
  8
I-C2
  5
5FE
 10
461.437506
 20
255.027116
 30
-37.429463
 70
    64
  0
VERTEX
  8
I-C2
  5
5FF
 10
447.309639
 20
237.527116
 30
-55.940784
 70
    64
  0
VERTEX
  8
I-C2
  5
600
 10
449.474702
 20
246.277116
 30
-57.190784
 70
    64
  0
VERTEX
  8
I-C2
  5
601
 10
451.639766
 20
255.027116
 30
-58.440784
 70
    64
  0
VERTEX
  8
I-C2
  5
602
 10
434.512076
 20
237.527116
 30
-74.217598
 70
    64
  0
VERTEX
  8
I-C2
  5
603
 10
436.427187
 20
246.277116
 30
-75.824567
 70
    64
  0
VERTEX
  8
I-C2
  5
604
 10
438.342298
 20
255.027116
 30
-77.431536
 70
    64
  0
VERTEX
  8
I-C2
  5
605
 10
418.735201
 20
237.527116
 30
-89.994473
 70
    64
  0
VERTEX
  8
I-C2
  5
606
 10
420.34217
 20
246.277116
 30
-91.909584
 70
    64
  0
VERTEX
  8
I-C2
  5
607
 10
421.949139
 20
255.027116
 30
-93.824695
 70
    64
  0
VERTEX
  8
I-C2
  5
608
 10
400.458387
 20
237.527116
 30
-102.792036
 70
    64
  0
VERTEX
  8
I-C2
  5
609
 10
401.708387
 20
246.277116
 30
-104.957099
 70
    64
  0
VERTEX
  8
I-C2
  5
60A
 10
402.958387
 20
255.027116
 30
-107.122163
 70
    64
  0
VERTEX
  8
I-C2
  5
60B
 10
380.236965
 20
237.527116
 30
-112.22144
 70
    64
  0
VERTEX
  8
I-C2
  5
60C
 10
381.092016
 20
246.277116
 30
-114.570671
 70
    64
  0
VERTEX
  8
I-C2
  5
60D
 10
381.947066
 20
255.027116
 30
-116.919903
 70
    64
  0
VERTEX
  8
I-C2
  5
60E
 10
358.685354
 20
237.527116
 30
-117.996177
 70
    64
  0
VERTEX
  8
I-C2
  5
60F
 10
359.119474
 20
246.277116
 30
-120.458196
 70
    64
  0
VERTEX
  8
I-C2
  5
610
 10
359.553595
 20
255.027116
 30
-122.920215
 70
    64
  0
SEQEND
  8
I-C2
  5
611
  0
POLYLINE
  8
I-C2
  5
612
 66
     1
 10
0.0
 20
0.0
 30
0.0
 70
    17
 71
    36
 72
     3
  0
VERTEX
  8
I-C2
  5
613
 10
336.458387
 20
255.027116
 30
-127.940784
 70
    64
  0
VERTEX
  8
I-C2
  5
614
 10
336.458387
 20
255.027116
 30
-126.440784
 70
    64
  0
VERTEX
  8
I-C2
  5
615
 10
336.458387
 20
255.027116
 30
-124.940784
 70
    64
  0
VERTEX
  8
I-C2
  5
616
 10
312.842235
 20
255.027116
 30
-125.874639
 70
    64
  0
VERTEX
  8
I-C2
  5
617
 10
313.102707
 20
255.027116
 30
-124.397427
 70
    64
  0
VERTEX
  8
I-C2
  5
618
 10
313.36318
 20
255.027116
 30
-122.920215
 70
    64
  0
VERTEX
  8
I-C2
  5
619
 10
289.943648
 20
255.027116
 30
-119.738981
 70
    64
  0
VERTEX
  8
I-C2
  5
61A
 10
290.456678
 20
255.027116
 30
-118.329442
 70
    64
  0
VERTEX
  8
I-C2
  5
61B
 10
290.969708
 20
255.027116
 30
-116.919903
 70
    64
  0
VERTEX
  8
I-C2
  5
61C
 10
268.458387
 20
255.027116
 30
-109.720239
 70
    64
  0
VERTEX
  8
I-C2
  5
61D
 10
269.208387
 20
255.027116
 30
-108.421201
 70
    64
  0
VERTEX
  8
I-C2
  5
61E
 10
269.958387
 20
255.027116
 30
-107.122163
 70
    64
  0
VERTEX
  8
I-C2
  5
61F
 10
249.039272
 20
255.027116
 30
-96.122828
 70
    64
  0
VERTEX
  8
I-C2
  5
620
 10
250.003454
 20
255.027116
 30
-94.973762
 70
    64
  0
VERTEX
  8
I-C2
  5
621
 10
250.967635
 20
255.027116
 30
-93.824695
 70
    64
  0
VERTEX
  8
I-C2
  5
622
 10
232.276343
 20
255.027116
 30
-79.359899
 70
    64
  0
VERTEX
  8
I-C2
  5
623
 10
233.42541
 20
255.027116
 30
-78.395718
 70
    64
  0
VERTEX
  8
I-C2
  5
624
 10
234.574476
 20
255.027116
 30
-77.431536
 70
    64
  0
VERTEX
  8
I-C2
  5
625
 10
218.678932
 20
255.027116
 30
-59.940784
 70
    64
  0
VERTEX
  8
I-C2
  5
626
 10
219.97797
 20
255.027116
 30
-59.190784
 70
    64
  0
VERTEX
  8
I-C2
  5
627
 10
221.277008
 20
255.027116
 30
-58.440784
 70
    64
  0
VERTEX
  8
I-C2
  5
628
 10
208.660191
 20
255.027116
 30
-38.455524
 70
    64
  0
VERTEX
  8
I-C2
  5
629
 10
210.06973
 20
255.027116
 30
-37.942493
 70
    64
  0
VERTEX
  8
I-C2
  5
62A
 10
211.479269
 20
255.027116
 30
-37.429463
 70
    64
  0
VERTEX
  8
I-C2
  5
62B
 10
202.524533
 20
255.027116
 30
-15.556936
 70
    64
  0
VERTEX
  8
I-C2
  5
62C
 10
204.001744
 20
255.027116
 30
-15.296464
 70
    64
  0
VERTEX
  8
I-C2
  5
62D
 10
205.478956
 20
255.027116
 30
-15.035992
 70
    64
  0
VERTEX
  8
I-C2
  5
62E
 10
200.458387
 20
255.027116
 30
8.059216
 70
    64
  0
VERTEX
  8
I-C2
  5
62F
 10
201.958387
 20
255.027116
 30
8.059216
 70
    64
  0
VERTEX
  8
I-C2
  5
630
 10
203.458387
 20
255.027116
 30
8.059216
 70
    64
  0
VERTEX
  8
I-C2
  5
631
 10
202.524533
 20
255.027116
 30
31.675368
 70
    64
  0
VERTEX
  8
I-C2
  5
632
 10
204.001744
 20
255.027116
 30
31.414896
 70
    64
  0
VERTEX
  8
I-C2
  5
633
 10
205.478956
 20
255.027116
 30
31.154423
 70
    64
  0
VERTEX
  8
I-C2
  5
634
 10
208.660191
 20
255.027116
 30
54.573955
 70
    64
  0
VERTEX
  8
I-C2
  5
635
 10
210.06973
 20
255.027116
 30
54.060925
 70
    64
  0
VERTEX
  8
I-C2
  5
636
 10
211.479269
 20
255.027116
 30
53.547895
 70
    64
  0
VERTEX
  8
I-C2
  5
637
 10
218.678932
 20
255.027116
 30
76.059216
 70
    64
  0
VERTEX
  8
I-C2
  5
638
 10
219.97797
 20
255.027116
 30
75.309216
 70
    64
  0
VERTEX
  8
I-C2
  5
639
 10
221.277008
 20
255.027116
 30
74.559216
 70
    64
  0
VERTEX
  8
I-C2
  5
63A
 10
232.276343
 20
255.027116
 30
95.478331
 70
    64
  0
VERTEX
  8
I-C2
  5
63B
 10
233.42541
 20
255.027116
 30
94.514149
 70
    64
  0
VERTEX
  8
I-C2
  5
63C
 10
234.574476
 20
255.027116
 30
93.549968
 70
    64
  0
VERTEX
  8
I-C2
  5
63D
 10
249.039272
 20
255.027116
 30
112.24126
 70
    64
  0
VERTEX
  8
I-C2
  5
63E
 10
250.003454
 20
255.027116
 30
111.092193
 70
    64
  0
VERTEX
  8
I-C2
  5
63F
 10
250.967635
 20
255.027116
 30
109.943127
 70
    64
  0
VERTEX
  8
I-C2
  5
640
 10
268.458387
 20
255.027116
 30
125.838671
 70
    64
  0
VERTEX
  8
I-C2
  5
641
 10
269.208387
 20
255.027116
 30
124.539633
 70
    64
  0
VERTEX
  8
I-C2
  5
642
 10
269.958387
 20
255.027116
 30
123.240595
 70
    64
  0
VERTEX
  8
I-C2
  5
643
 10
289.943648
 20
255.027116
 30
135.857412
 70
    64
  0
VERTEX
  8
I-C2
  5
644
 10
290.456678
 20
255.027116
 30
134.447873
 70
    64
  0
VERTEX
  8
I-C2
  5
645
 10
290.969708
 20
255.027116
 30
133.038334
 70
    64
  0
VERTEX
  8
I-C2
  5
646
 10
312.842235
 20
255.027116
 30
141.99307
 70
    64
  0
VERTEX
  8
I-C2
  5
647
 10
313.102707
 20
255.027116
 30
140.515859
 70
    64
  0
VERTEX
  8
I-C2
  5
648
 10
313.36318
 20
255.027116
 30
139.038647
 70
    64
  0
VERTEX
  8
I-C2
  5
649
 10
336.458387
 20
255.027116
 30
144.059216
 70
    64
  0
VERTEX
  8
I-C2
  5
64A
 10
336.458387
 20
255.027116
 30
142.559216
 70
    64
  0
VERTEX
  8
I-C2
  5
64B
 10
336.458387
 20
255.027116
 30
141.059216
 70
    64
  0
VERTEX
  8
I-C2
  5
64C
 10
360.074539
 20
255.027116
 30
141.99307
 70
    64
  0
VERTEX
  8
I-C2
  5
64D
 10
359.814067
 20
255.027116
 30
140.515859
 70
    64
  0
VERTEX
  8
I-C2
  5
64E
 10
359.553595
 20
255.027116
 30
139.038647
 70
    64
  0
VERTEX
  8
I-C2
  5
64F
 10
382.973127
 20
255.027116
 30
135.857412
 70
    64
  0
VERTEX
  8
I-C2
  5
650
 10
382.460096
 20
255.027116
 30
134.447873
 70
    64
  0
VERTEX
  8
I-C2
  5
651
 10
381.947066
 20
255.027116
 30
133.038334
 70
    64
  0
VERTEX
  8
I-C2
  5
652
 10
404.458387
 20
255.027116
 30
125.838671
 70
    64
  0
VERTEX
  8
I-C2
  5
653
 10
403.708387
 20
255.027116
 30
124.539633
 70
    64
  0
VERTEX
  8
I-C2
  5
654
 10
402.958387
 20
255.027116
 30
123.240595
 70
    64
  0
VERTEX
  8
I-C2
  5
655
 10
423.877502
 20
255.027116
 30
112.24126
 70
    64
  0
VERTEX
  8
I-C2
  5
656
 10
422.913321
 20
255.027116
 30
111.092193
 70
    64
  0
VERTEX
  8
I-C2
  5
657
 10
421.949139
 20
255.027116
 30
109.943127
 70
    64
  0
VERTEX
  8
I-C2
  5
658
 10
440.640431
 20
255.027116
 30
95.478331
 70
    64
  0
VERTEX
  8
I-C2
  5
659
 10
439.491365
 20
255.027116
 30
94.514149
 70
    64
  0
VERTEX
  8
I-C2
  5
65A
 10
438.342298
 20
255.027116
 30
93.549968
 70
    64
  0
VERTEX
  8
I-C2
  5
65B
 10
454.237842
 20
255.027116
 30
76.059216
 70
    64
  0
VERTEX
  8
I-C2
  5
65C
 10
452.938804
 20
255.027116
 30
75.309216
 70
    64
  0
VERTEX
  8
I-C2
  5
65D
 10
451.639766
 20
255.027116
 30
74.559216
 70
    64
  0
VERTEX
  8
I-C2
  5
65E
 10
464.256584
 20
255.027116
 30
54.573955
 70
    64
  0
VERTEX
  8
I-C2
  5
65F
 10
462.847045
 20
255.027116
 30
54.060925
 70
    64
  0
VERTEX
  8
I-C2
  5
660
 10
461.437506
 20
255.027116
 30
53.547895
 70
    64
  0
VERTEX
  8
I-C2
  5
661
 10
470.392242
 20
255.027116
 30
31.675368
 70
    64
  0
VERTEX
  8
I-C2
  5
662
 10
468.91503
 20
255.027116
 30
31.414896
 70
    64
  0
VERTEX
  8
I-C2
  5
663
 10
467.437818
 20
255.027116
 30
31.154423
 70
    64
  0
VERTEX
  8
I-C2
  5
664
 10
472.458387
 20
255.027116
 30
8.059216
 70
    64
  0
VERTEX
  8
I-C2
  5
665
 10
470.958387
 20
255.027116
 30
8.059216
 70
    64
  0
VERTEX
  8
I-C2
  5
666
 10
469.458387
 20
255.027116
 30
8.059216
 70
    64
  0
VERTEX
  8
I-C2
  5
667
 10
470.392242
 20
255.027116
 30
-15.556936
 70
    64
  0
VERTEX
  8
I-C2
  5
668
 10
468.91503
 20
255.027116
 30
-15.296464
 70
    64
  0
VERTEX
  8
I-C2
  5
669
 10
467.437818
 20
255.027116
 30
-15.035992
 70
    64
  0
VERTEX
  8
I-C2
  5
66A
 10
464.256584
 20
255.027116
 30
-38.455524
 70
    64
  0
VERTEX
  8
I-C2
  5
66B
 10
462.847045
 20
255.027116
 30
-37.942493
 70
    64
  0
VERTEX
  8
I-C2
  5
66C
 10
461.437506
 20
255.027116
 30
-37.429463
 70
    64
  0
VERTEX
  8
I-C2
  5
66D
 10
454.237842
 20
255.027116
 30
-59.940784
 70
    64
  0
VERTEX
  8
I-C2
  5
66E
 10
452.938804
 20
255.027116
 30
-59.190784
 70
    64
  0
VERTEX
  8
I-C2
  5
66F
 10
451.639766
 20
255.027116
 30
-58.440784
 70
    64
  0
VERTEX
  8
I-C2
  5
670
 10
440.640431
 20
255.027116
 30
-79.359899
 70
    64
  0
VERTEX
  8
I-C2
  5
671
 10
439.491365
 20
255.027116
 30
-78.395718
 70
    64
  0
VERTEX
  8
I-C2
  5
672
 10
438.342298
 20
255.027116
 30
-77.431536
 70
    64
  0
VERTEX
  8
I-C2
  5
673
 10
423.877502
 20
255.027116
 30
-96.122828
 70
    64
  0
VERTEX
  8
I-C2
  5
674
 10
422.913321
 20
255.027116
 30
-94.973762
 70
    64
  0
VERTEX
  8
I-C2
  5
675
 10
421.949139
 20
255.027116
 30
-93.824695
 70
    64
  0
VERTEX
  8
I-C2
  5
676
 10
404.458387
 20
255.027116
 30
-109.720239
 70
    64
  0
VERTEX
  8
I-C2
  5
677
 10
403.708387
 20
255.027116
 30
-108.421201
 70
    64
  0
VERTEX
  8
I-C2
  5
678
 10
402.958387
 20
255.027116
 30
-107.122163
 70
    64
  0
VERTEX
  8
I-C2
  5
679
 10
382.973127
 20
255.027116
 30
-119.738981
 70
    64
  0
VERTEX
  8
I-C2
  5
67A
 10
382.460096
 20
255.027116
 30
-118.329442
 70
    64
  0
VERTEX
  8
I-C2
  5
67B
 10
381.947066
 20
255.027116
 30
-116.919903
 70
    64
  0
VERTEX
  8
I-C2
  5
67C
 10
360.074539
 20
255.027116
 30
-125.874639
 70
    64
  0
VERTEX
  8
I-C2
  5
67D
 10
359.814067
 20
255.027116
 30
-124.397427
 70
    64
  0
VERTEX
  8
I-C2
  5
67E
 10
359.553595
 20
255.027116
 30
-122.920215
 70
    64
  0
SEQEND
  8
I-C2
  5
67F
  0
POLYLINE
  8
I-C2
  5
680
 66
     1
 10
0.0
 20
0.0
 30
0.0
 70
    17
 71
    36
 72
     3
  0
VERTEX
  8
I-C2
  5
681
 10
336.458387
 20
255.027116
 30
-127.940784
 70
    64
  0
VERTEX
  8
I-C2
  5
682
 10
336.458387
 20
263.777116
 30
-130.440784
 70
    64
  0
VERTEX
  8
I-C2
  5
683
 10
336.458387
 20
272.527116
 30
-132.940784
 70
    64
  0
VERTEX
  8
I-C2
  5
684
 10
312.842235
 20
255.027116
 30
-125.874639
 70
    64
  0
VERTEX
  8
I-C2
  5
685
 10
312.408115
 20
263.777116
 30
-128.336658
 70
    64
  0
VERTEX
  8
I-C2
  5
686
 10
311.973994
 20
272.527116
 30
-130.798677
 70
    64
  0
VERTEX
  8
I-C2
  5
687
 10
289.943648
 20
255.027116
 30
-119.738981
 70
    64
  0
VERTEX
  8
I-C2
  5
688
 10
289.088597
 20
263.777116
 30
-122.088212
 70
    64
  0
VERTEX
  8
I-C2
  5
689
 10
288.233547
 20
272.527116
 30
-124.437444
 70
    64
  0
VERTEX
  8
I-C2
  5
68A
 10
268.458387
 20
255.027116
 30
-109.720239
 70
    64
  0
VERTEX
  8
I-C2
  5
68B
 10
267.208387
 20
263.777116
 30
-111.885303
 70
    64
  0
VERTEX
  8
I-C2
  5
68C
 10
265.958387
 20
272.527116
 30
-114.050366
 70
    64
  0
VERTEX
  8
I-C2
  5
68D
 10
249.039272
 20
255.027116
 30
-96.122828
 70
    64
  0
VERTEX
  8
I-C2
  5
68E
 10
247.432303
 20
263.777116
 30
-98.03794
 70
    64
  0
VERTEX
  8
I-C2
  5
68F
 10
245.825334
 20
272.527116
 30
-99.953051
 70
    64
  0
VERTEX
  8
I-C2
  5
690
 10
232.276343
 20
255.027116
 30
-79.359899
 70
    64
  0
VERTEX
  8
I-C2
  5
691
 10
230.361232
 20
263.777116
 30
-80.966868
 70
    64
  0
VERTEX
  8
I-C2
  5
692
 10
228.446121
 20
272.527116
 30
-82.573837
 70
    64
  0
VERTEX
  8
I-C2
  5
693
 10
218.678932
 20
255.027116
 30
-59.940784
 70
    64
  0
VERTEX
  8
I-C2
  5
694
 10
216.513869
 20
263.777116
 30
-61.190784
 70
    64
  0
VERTEX
  8
I-C2
  5
695
 10
214.348805
 20
272.527116
 30
-62.440784
 70
    64
  0
VERTEX
  8
I-C2
  5
696
 10
208.660191
 20
255.027116
 30
-38.455524
 70
    64
  0
VERTEX
  8
I-C2
  5
697
 10
206.310959
 20
263.777116
 30
-39.310574
 70
    64
  0
VERTEX
  8
I-C2
  5
698
 10
203.961728
 20
272.527116
 30
-40.165624
 70
    64
  0
VERTEX
  8
I-C2
  5
699
 10
202.524533
 20
255.027116
 30
-15.556936
 70
    64
  0
VERTEX
  8
I-C2
  5
69A
 10
200.062513
 20
263.777116
 30
-15.991057
 70
    64
  0
VERTEX
  8
I-C2
  5
69B
 10
197.600494
 20
272.527116
 30
-16.425177
 70
    64
  0
VERTEX
  8
I-C2
  5
69C
 10
200.458387
 20
255.027116
 30
8.059216
 70
    64
  0
VERTEX
  8
I-C2
  5
69D
 10
197.958387
 20
263.777116
 30
8.059216
 70
    64
  0
VERTEX
  8
I-C2
  5
69E
 10
195.458387
 20
272.527116
 30
8.059216
 70
    64
  0
VERTEX
  8
I-C2
  5
69F
 10
202.524533
 20
255.027116
 30
31.675368
 70
    64
  0
VERTEX
  8
I-C2
  5
6A0
 10
200.062513
 20
263.777116
 30
32.109488
 70
    64
  0
VERTEX
  8
I-C2
  5
6A1
 10
197.600494
 20
272.527116
 30
32.543609
 70
    64
  0
VERTEX
  8
I-C2
  5
6A2
 10
208.660191
 20
255.027116
 30
54.573955
 70
    64
  0
VERTEX
  8
I-C2
  5
6A3
 10
206.310959
 20
263.777116
 30
55.429006
 70
    64
  0
VERTEX
  8
I-C2
  5
6A4
 10
203.961728
 20
272.527116
 30
56.284056
 70
    64
  0
VERTEX
  8
I-C2
  5
6A5
 10
218.678932
 20
255.027116
 30
76.059216
 70
    64
  0
VERTEX
  8
I-C2
  5
6A6
 10
216.513869
 20
263.777116
 30
77.309216
 70
    64
  0
VERTEX
  8
I-C2
  5
6A7
 10
214.348805
 20
272.527116
 30
78.559216
 70
    64
  0
VERTEX
  8
I-C2
  5
6A8
 10
232.276343
 20
255.027116
 30
95.478331
 70
    64
  0
VERTEX
  8
I-C2
  5
6A9
 10
230.361232
 20
263.777116
 30
97.0853
 70
    64
  0
VERTEX
  8
I-C2
  5
6AA
 10
228.446121
 20
272.527116
 30
98.692269
 70
    64
  0
VERTEX
  8
I-C2
  5
6AB
 10
249.039272
 20
255.027116
 30
112.24126
 70
    64
  0
VERTEX
  8
I-C2
  5
6AC
 10
247.432303
 20
263.777116
 30
114.156371
 70
    64
  0
VERTEX
  8
I-C2
  5
6AD
 10
245.825334
 20
272.527116
 30
116.071482
 70
    64
  0
VERTEX
  8
I-C2
  5
6AE
 10
268.458387
 20
255.027116
 30
125.838671
 70
    64
  0
VERTEX
  8
I-C2
  5
6AF
 10
267.208387
 20
263.777116
 30
128.003734
 70
    64
  0
VERTEX
  8
I-C2
  5
6B0
 10
265.958387
 20
272.527116
 30
130.168798
 70
    64
  0
VERTEX
  8
I-C2
  5
6B1
 10
289.943648
 20
255.027116
 30
135.857412
 70
    64
  0
VERTEX
  8
I-C2
  5
6B2
 10
289.088597
 20
263.777116
 30
138.206644
 70
    64
  0
VERTEX
  8
I-C2
  5
6B3
 10
288.233547
 20
272.527116
 30
140.555875
 70
    64
  0
VERTEX
  8
I-C2
  5
6B4
 10
312.842235
 20
255.027116
 30
141.99307
 70
    64
  0
VERTEX
  8
I-C2
  5
6B5
 10
312.408115
 20
263.777116
 30
144.45509
 70
    64
  0
VERTEX
  8
I-C2
  5
6B6
 10
311.973994
 20
272.527116
 30
146.917109
 70
    64
  0
VERTEX
  8
I-C2
  5
6B7
 10
336.458387
 20
255.027116
 30
144.059216
 70
    64
  0
VERTEX
  8
I-C2
  5
6B8
 10
336.458387
 20
263.777116
 30
146.559216
 70
    64
  0
VERTEX
  8
I-C2
  5
6B9
 10
336.458387
 20
272.527116
 30
149.059216
 70
    64
  0
VERTEX
  8
I-C2
  5
6BA
 10
360.074539
 20
255.027116
 30
141.99307
 70
    64
  0
VERTEX
  8
I-C2
  5
6BB
 10
360.50866
 20
263.777116
 30
144.45509
 70
    64
  0
VERTEX
  8
I-C2
  5
6BC
 10
360.94278
 20
272.527116
 30
146.917109
 70
    64
  0
VERTEX
  8
I-C2
  5
6BD
 10
382.973127
 20
255.027116
 30
135.857412
 70
    64
  0
VERTEX
  8
I-C2
  5
6BE
 10
383.828177
 20
263.777116
 30
138.206644
 70
    64
  0
VERTEX
  8
I-C2
  5
6BF
 10
384.683227
 20
272.527116
 30
140.555875
 70
    64
  0
VERTEX
  8
I-C2
  5
6C0
 10
404.458387
 20
255.027116
 30
125.838671
 70
    64
  0
VERTEX
  8
I-C2
  5
6C1
 10
405.708387
 20
263.777116
 30
128.003734
 70
    64
  0
VERTEX
  8
I-C2
  5
6C2
 10
406.958387
 20
272.527116
 30
130.168798
 70
    64
  0
VERTEX
  8
I-C2
  5
6C3
 10
423.877502
 20
255.027116
 30
112.24126
 70
    64
  0
VERTEX
  8
I-C2
  5
6C4
 10
425.484471
 20
263.777116
 30
114.156371
 70
    64
  0
VERTEX
  8
I-C2
  5
6C5
 10
427.09144
 20
272.527116
 30
116.071482
 70
    64
  0
VERTEX
  8
I-C2
  5
6C6
 10
440.640431
 20
255.027116
 30
95.478331
 70
    64
  0
VERTEX
  8
I-C2
  5
6C7
 10
442.555543
 20
263.777116
 30
97.0853
 70
    64
  0
VERTEX
  8
I-C2
  5
6C8
 10
444.470654
 20
272.527116
 30
98.692269
 70
    64
  0
VERTEX
  8
I-C2
  5
6C9
 10
454.237842
 20
255.027116
 30
76.059216
 70
    64
  0
VERTEX
  8
I-C2
  5
6CA
 10
456.402906
 20
263.777116
 30
77.309216
 70
    64
  0
VERTEX
  8
I-C2
  5
6CB
 10
458.567969
 20
272.527116
 30
78.559216
 70
    64
  0
VERTEX
  8
I-C2
  5
6CC
 10
464.256584
 20
255.027116
 30
54.573955
 70
    64
  0
VERTEX
  8
I-C2
  5
6CD
 10
466.605815
 20
263.777116
 30
55.429006
 70
    64
  0
VERTEX
  8
I-C2
  5
6CE
 10
468.955047
 20
272.527116
 30
56.284056
 70
    64
  0
VERTEX
  8
I-C2
  5
6CF
 10
470.392242
 20
255.027116
 30
31.675368
 70
    64
  0
VERTEX
  8
I-C2
  5
6D0
 10
472.854261
 20
263.777116
 30
32.109488
 70
    64
  0
VERTEX
  8
I-C2
  5
6D1
 10
475.31628
 20
272.527116
 30
32.543609
 70
    64
  0
VERTEX
  8
I-C2
  5
6D2
 10
472.458387
 20
255.027116
 30
8.059216
 70
    64
  0
VERTEX
  8
I-C2
  5
6D3
 10
474.958387
 20
263.777116
 30
8.059216
 70
    64
  0
VERTEX
  8
I-C2
  5
6D4
 10
477.458387
 20
272.527116
 30
8.059216
 70
    64
  0
VERTEX
  8
I-C2
  5
6D5
 10
470.392242
 20
255.027116
 30
-15.556936
 70
    64
  0
VERTEX
  8
I-C2
  5
6D6
 10
472.854261
 20
263.777116
 30
-15.991057
 70
    64
  0
VERTEX
  8
I-C2
  5
6D7
 10
475.31628
 20
272.527116
 30
-16.425177
 70
    64
  0
VERTEX
  8
I-C2
  5
6D8
 10
464.256584
 20
255.027116
 30
-38.455524
 70
    64
  0
VERTEX
  8
I-C2
  5
6D9
 10
466.605815
 20
263.777116
 30
-39.310574
 70
    64
  0
VERTEX
  8
I-C2
  5
6DA
 10
468.955047
 20
272.527116
 30
-40.165624
 70
    64
  0
VERTEX
  8
I-C2
  5
6DB
 10
454.237842
 20
255.027116
 30
-59.940784
 70
    64
  0
VERTEX
  8
I-C2
  5
6DC
 10
456.402906
 20
263.777116
 30
-61.190784
 70
    64
  0
VERTEX
  8
I-C2
  5
6DD
 10
458.567969
 20
272.527116
 30
-62.440784
 70
    64
  0
VERTEX
  8
I-C2
  5
6DE
 10
440.640431
 20
255.027116
 30
-79.359899
 70
    64
  0
VERTEX
  8
I-C2
  5
6DF
 10
442.555543
 20
263.777116
 30
-80.966868
 70
    64
  0
VERTEX
  8
I-C2
  5
6E0
 10
444.470654
 20
272.527116
 30
-82.573837
 70
    64
  0
VERTEX
  8
I-C2
  5
6E1
 10
423.877502
 20
255.027116
 30
-96.122828
 70
    64
  0
VERTEX
  8
I-C2
  5
6E2
 10
425.484471
 20
263.777116
 30
-98.03794
 70
    64
  0
VERTEX
  8
I-C2
  5
6E3
 10
427.09144
 20
272.527116
 30
-99.953051
 70
    64
  0
VERTEX
  8
I-C2
  5
6E4
 10
404.458387
 20
255.027116
 30
-109.720239
 70
    64
  0
VERTEX
  8
I-C2
  5
6E5
 10
405.708387
 20
263.777116
 30
-111.885303
 70
    64
  0
VERTEX
  8
I-C2
  5
6E6
 10
406.958387
 20
272.527116
 30
-114.050366
 70
    64
  0
VERTEX
  8
I-C2
  5
6E7
 10
382.973127
 20
255.027116
 30
-119.738981
 70
    64
  0
VERTEX
  8
I-C2
  5
6E8
 10
383.828177
 20
263.777116
 30
-122.088212
 70
    64
  0
VERTEX
  8
I-C2
  5
6E9
 10
384.683227
 20
272.527116
 30
-124.437444
 70
    64
  0
VERTEX
  8
I-C2
  5
6EA
 10
360.074539
 20
255.027116
 30
-125.874639
 70
    64
  0
VERTEX
  8
I-C2
  5
6EB
 10
360.50866
 20
263.777116
 30
-128.336658
 70
    64
  0
VERTEX
  8
I-C2
  5
6EC
 10
360.94278
 20
272.527116
 30
-130.798677
 70
    64
  0
SEQEND
  8
I-C2
  5
6ED
  0
POLYLINE
  8
I-C2
  5
6EE
 66
     1
 10
0.0
 20
0.0
 30
0.0
 70
    17
 71
    36
 72
     3
  0
VERTEX
  8
I-C2
  5
6EF
 10
336.458387
 20
272.527116
 30
-132.940784
 70
    64
  0
VERTEX
  8
I-C2
  5
6F0
 10
336.458387
 20
272.527116
 30
-134.440784
 70
    64
  0
VERTEX
  8
I-C2
  5
6F1
 10
336.458387
 20
272.527116
 30
-135.940784
 70
    64
  0
VERTEX
  8
I-C2
  5
6F2
 10
360.94278
 20
272.527116
 30
-130.798677
 70
    64
  0
VERTEX
  8
I-C2
  5
6F3
 10
361.203252
 20
272.527116
 30
-132.275889
 70
    64
  0
VERTEX
  8
I-C2
  5
6F4
 10
361.463725
 20
272.527116
 30
-133.753101
 70
    64
  0
VERTEX
  8
I-C2
  5
6F5
 10
384.683227
 20
272.527116
 30
-124.437444
 70
    64
  0
VERTEX
  8
I-C2
  5
6F6
 10
385.196258
 20
272.527116
 30
-125.846983
 70
    64
  0
VERTEX
  8
I-C2
  5
6F7
 10
385.709288
 20
272.527116
 30
-127.256522
 70
    64
  0
VERTEX
  8
I-C2
  5
6F8
 10
406.958387
 20
272.527116
 30
-114.050366
 70
    64
  0
VERTEX
  8
I-C2
  5
6F9
 10
407.708387
 20
272.527116
 30
-115.349404
 70
    64
  0
VERTEX
  8
I-C2
  5
6FA
 10
408.458387
 20
272.527116
 30
-116.648442
 70
    64
  0
VERTEX
  8
I-C2
  5
6FB
 10
427.09144
 20
272.527116
 30
-99.953051
 70
    64
  0
VERTEX
  8
I-C2
  5
6FC
 10
428.055622
 20
272.527116
 30
-101.102117
 70
    64
  0
VERTEX
  8
I-C2
  5
6FD
 10
429.019803
 20
272.527116
 30
-102.251184
 70
    64
  0
VERTEX
  8
I-C2
  5
6FE
 10
444.470654
 20
272.527116
 30
-82.573837
 70
    64
  0
VERTEX
  8
I-C2
  5
6FF
 10
445.61972
 20
272.527116
 30
-83.538019
 70
    64
  0
VERTEX
  8
I-C2
  5
700
 10
446.768787
 20
272.527116
 30
-84.5022
 70
    64
  0
VERTEX
  8
I-C2
  5
701
 10
458.567969
 20
272.527116
 30
-62.440784
 70
    64
  0
VERTEX
  8
I-C2
  5
702
 10
459.867007
 20
272.527116
 30
-63.190784
 70
    64
  0
VERTEX
  8
I-C2
  5
703
 10
461.166045
 20
272.527116
 30
-63.940784
 70
    64
  0
VERTEX
  8
I-C2
  5
704
 10
468.955047
 20
272.527116
 30
-40.165624
 70
    64
  0
VERTEX
  8
I-C2
  5
705
 10
470.364586
 20
272.527116
 30
-40.678655
 70
    64
  0
VERTEX
  8
I-C2
  5
706
 10
471.774125
 20
272.527116
 30
-41.191685
 70
    64
  0
VERTEX
  8
I-C2
  5
707
 10
475.31628
 20
272.527116
 30
-16.425177
 70
    64
  0
VERTEX
  8
I-C2
  5
708
 10
476.793492
 20
272.527116
 30
-16.685649
 70
    64
  0
VERTEX
  8
I-C2
  5
709
 10
478.270704
 20
272.527116
 30
-16.946122
 70
    64
  0
VERTEX
  8
I-C2
  5
70A
 10
477.458387
 20
272.527116
 30
8.059216
 70
    64
  0
VERTEX
  8
I-C2
  5
70B
 10
478.958387
 20
272.527116
 30
8.059216
 70
    64
  0
VERTEX
  8
I-C2
  5
70C
 10
480.458387
 20
272.527116
 30
8.059216
 70
    64
  0
VERTEX
  8
I-C2
  5
70D
 10
475.31628
 20
272.527116
 30
32.543609
 70
    64
  0
VERTEX
  8
I-C2
  5
70E
 10
476.793492
 20
272.527116
 30
32.804081
 70
    64
  0
VERTEX
  8
I-C2
  5
70F
 10
478.270704
 20
272.527116
 30
33.064553
 70
    64
  0
VERTEX
  8
I-C2
  5
710
 10
468.955047
 20
272.527116
 30
56.284056
 70
    64
  0
VERTEX
  8
I-C2
  5
711
 10
470.364586
 20
272.527116
 30
56.797086
 70
    64
  0
VERTEX
  8
I-C2
  5
712
 10
471.774125
 20
272.527116
 30
57.310116
 70
    64
  0
VERTEX
  8
I-C2
  5
713
 10
458.567969
 20
272.527116
 30
78.559216
 70
    64
  0
VERTEX
  8
I-C2
  5
714
 10
459.867007
 20
272.527116
 30
79.309216
 70
    64
  0
VERTEX
  8
I-C2
  5
715
 10
461.166045
 20
272.527116
 30
80.059216
 70
    64
  0
VERTEX
  8
I-C2
  5
716
 10
444.470654
 20
272.527116
 30
98.692269
 70
    64
  0
VERTEX
  8
I-C2
  5
717
 10
445.61972
 20
272.527116
 30
99.65645
 70
    64
  0
VERTEX
  8
I-C2
  5
718
 10
446.768787
 20
272.527116
 30
100.620632
 70
    64
  0
VERTEX
  8
I-C2
  5
719
 10
427.09144
 20
272.527116
 30
116.071482
 70
    64
  0
VERTEX
  8
I-C2
  5
71A
 10
428.055622
 20
272.527116
 30
117.220549
 70
    64
  0
VERTEX
  8
I-C2
  5
71B
 10
429.019803
 20
272.527116
 30
118.369616
 70
    64
  0
VERTEX
  8
I-C2
  5
71C
 10
406.958387
 20
272.527116
 30
130.168798
 70
    64
  0
VERTEX
  8
I-C2
  5
71D
 10
407.708387
 20
272.527116
 30
131.467836
 70
    64
  0
VERTEX
  8
I-C2
  5
71E
 10
408.458387
 20
272.527116
 30
132.766874
 70
    64
  0
VERTEX
  8
I-C2
  5
71F
 10
384.683227
 20
272.527116
 30
140.555875
 70
    64
  0
VERTEX
  8
I-C2
  5
720
 10
385.196258
 20
272.527116
 30
141.965414
 70
    64
  0
VERTEX
  8
I-C2
  5
721
 10
385.709288
 20
272.527116
 30
143.374953
 70
    64
  0
VERTEX
  8
I-C2
  5
722
 10
360.94278
 20
272.527116
 30
146.917109
 70
    64
  0
VERTEX
  8
I-C2
  5
723
 10
361.203252
 20
272.527116
 30
148.394321
 70
    64
  0
VERTEX
  8
I-C2
  5
724
 10
361.463725
 20
272.527116
 30
149.871532
 70
    64
  0
VERTEX
  8
I-C2
  5
725
 10
336.458387
 20
272.527116
 30
149.059216
 70
    64
  0
VERTEX
  8
I-C2
  5
726
 10
336.458387
 20
272.527116
 30
150.559216
 70
    64
  0
VERTEX
  8
I-C2
  5
727
 10
336.458387
 20
272.527116
 30
152.059216
 70
    64
  0
VERTEX
  8
I-C2
  5
728
 10
311.973994
 20
272.527116
 30
146.917109
 70
    64
  0
VERTEX
  8
I-C2
  5
729
 10
311.713522
 20
272.527116
 30
148.394321
 70
    64
  0
VERTEX
  8
I-C2
  5
72A
 10
311.45305
 20
272.527116
 30
149.871532
 70
    64
  0
VERTEX
  8
I-C2
  5
72B
 10
288.233547
 20
272.527116
 30
140.555875
 70
    64
  0
VERTEX
  8
I-C2
  5
72C
 10
287.720517
 20
272.527116
 30
141.965414
 70
    64
  0
VERTEX
  8
I-C2
  5
72D
 10
287.207486
 20
272.527116
 30
143.374953
 70
    64
  0
VERTEX
  8
I-C2
  5
72E
 10
265.958387
 20
272.527116
 30
130.168798
 70
    64
  0
VERTEX
  8
I-C2
  5
72F
 10
265.208387
 20
272.527116
 30
131.467836
 70
    64
  0
VERTEX
  8
I-C2
  5
730
 10
264.458387
 20
272.527116
 30
132.766874
 70
    64
  0
VERTEX
  8
I-C2
  5
731
 10
245.825334
 20
272.527116
 30
116.071482
 70
    64
  0
VERTEX
  8
I-C2
  5
732
 10
244.861153
 20
272.527116
 30
117.220549
 70
    64
  0
VERTEX
  8
I-C2
  5
733
 10
243.896971
 20
272.527116
 30
118.369616
 70
    64
  0
VERTEX
  8
I-C2
  5
734
 10
228.446121
 20
272.527116
 30
98.692269
 70
    64
  0
VERTEX
  8
I-C2
  5
735
 10
227.297054
 20
272.527116
 30
99.65645
 70
    64
  0
VERTEX
  8
I-C2
  5
736
 10
226.147987
 20
272.527116
 30
100.620632
 70
    64
  0
VERTEX
  8
I-C2
  5
737
 10
214.348805
 20
272.527116
 30
78.559216
 70
    64
  0
VERTEX
  8
I-C2
  5
738
 10
213.049767
 20
272.527116
 30
79.309216
 70
    64
  0
VERTEX
  8
I-C2
  5
739
 10
211.750729
 20
272.527116
 30
80.059216
 70
    64
  0
VERTEX
  8
I-C2
  5
73A
 10
203.961728
 20
272.527116
 30
56.284056
 70
    64
  0
VERTEX
  8
I-C2
  5
73B
 10
202.552189
 20
272.527116
 30
56.797086
 70
    64
  0
VERTEX
  8
I-C2
  5
73C
 10
201.14265
 20
272.527116
 30
57.310116
 70
    64
  0
VERTEX
  8
I-C2
  5
73D
 10
197.600494
 20
272.527116
 30
32.543609
 70
    64
  0
VERTEX
  8
I-C2
  5
73E
 10
196.123282
 20
272.527116
 30
32.804081
 70
    64
  0
VERTEX
  8
I-C2
  5
73F
 10
194.646071
 20
272.527116
 30
33.064553
 70
    64
  0
VERTEX
  8
I-C2
  5
740
 10
195.458387
 20
272.527116
 30
8.059216
 70
    64
  0
VERTEX
  8
I-C2
  5
741
 10
193.958387
 20
272.527116
 30
8.059216
 70
    64
  0
VERTEX
  8
I-C2
  5
742
 10
192.458387
 20
272.527116
 30
8.059216
 70
    64
  0
VERTEX
  8
I-C2
  5
743
 10
197.600494
 20
272.527116
 30
-16.425177
 70
    64
  0
VERTEX
  8
I-C2
  5
744
 10
196.123282
 20
272.527116
 30
-16.685649
 70
    64
  0
VERTEX
  8
I-C2
  5
745
 10
194.646071
 20
272.527116
 30
-16.946122
 70
    64
  0
VERTEX
  8
I-C2
  5
746
 10
203.961728
 20
272.527116
 30
-40.165624
 70
    64
  0
VERTEX
  8
I-C2
  5
747
 10
202.552189
 20
272.527116
 30
-40.678655
 70
    64
  0
VERTEX
  8
I-C2
  5
748
 10
201.14265
 20
272.527116
 30
-41.191685
 70
    64
  0
VERTEX
  8
I-C2
  5
749
 10
214.348805
 20
272.527116
 30
-62.440784
 70
    64
  0
VERTEX
  8
I-C2
  5
74A
 10
213.049767
 20
272.527116
 30
-63.190784
 70
    64
  0
VERTEX
  8
I-C2
  5
74B
 10
211.750729
 20
272.527116
 30
-63.940784
 70
    64
  0
VERTEX
  8
I-C2
  5
74C
 10
228.446121
 20
272.527116
 30
-82.573837
 70
    64
  0
VERTEX
  8
I-C2
  5
74D
 10
227.297054
 20
272.527116
 30
-83.538019
 70
    64
  0
VERTEX
  8
I-C2
  5
74E
 10
226.147987
 20
272.527116
 30
-84.5022
 70
    64
  0
VERTEX
  8
I-C2
  5
74F
 10
245.825334
 20
272.527116
 30
-99.953051
 70
    64
  0
VERTEX
  8
I-C2
  5
750
 10
244.861153
 20
272.527116
 30
-101.102117
 70
    64
  0
VERTEX
  8
I-C2
  5
751
 10
243.896971
 20
272.527116
 30
-102.251184
 70
    64
  0
VERTEX
  8
I-C2
  5
752
 10
265.958387
 20
272.527116
 30
-114.050366
 70
    64
  0
VERTEX
  8
I-C2
  5
753
 10
265.208387
 20
272.527116
 30
-115.349404
 70
    64
  0
VERTEX
  8
I-C2
  5
754
 10
264.458387
 20
272.527116
 30
-116.648442
 70
    64
  0
VERTEX
  8
I-C2
  5
755
 10
288.233547
 20
272.527116
 30
-124.437444
 70
    64
  0
VERTEX
  8
I-C2
  5
756
 10
287.720517
 20
272.527116
 30
-125.846983
 70
    64
  0
VERTEX
  8
I-C2
  5
757
 10
287.207486
 20
272.527116
 30
-127.256522
 70
    64
  0
VERTEX
  8
I-C2
  5
758
 10
311.973994
 20
272.527116
 30
-130.798677
 70
    64
  0
VERTEX
  8
I-C2
  5
759
 10
311.713522
 20
272.527116
 30
-132.275889
 70
    64
  0
VERTEX
  8
I-C2
  5
75A
 10
311.45305
 20
272.527116
 30
-133.753101
 70
    64
  0
SEQEND
  8
I-C2
  5
75B
  0
POLYLINE
  8
I-C2
  5
75C
 66
     1
 10
0.0
 20
0.0
 30
0.0
 70
    17
 71
    36
 72
     3
  0
VERTEX
  8
I-C2
  5
75D
 10
336.458387
 20
290.027116
 30
-140.940784
 70
    64
  0
VERTEX
  8
I-C2
  5
75E
 10
336.458387
 20
281.277116
 30
-138.440784
 70
    64
  0
VERTEX
  8
I-C2
  5
75F
 10
336.458387
 20
272.527116
 30
-135.940784
 70
    64
  0
VERTEX
  8
I-C2
  5
760
 10
362.331966
 20
290.027116
 30
-138.677139
 70
    64
  0
VERTEX
  8
I-C2
  5
761
 10
361.897845
 20
281.277116
 30
-136.21512
 70
    64
  0
VERTEX
  8
I-C2
  5
762
 10
361.463725
 20
272.527116
 30
-133.753101
 70
    64
  0
VERTEX
  8
I-C2
  5
763
 10
387.419388
 20
290.027116
 30
-131.954985
 70
    64
  0
VERTEX
  8
I-C2
  5
764
 10
386.564338
 20
281.277116
 30
-129.605753
 70
    64
  0
VERTEX
  8
I-C2
  5
765
 10
385.709288
 20
272.527116
 30
-127.256522
 70
    64
  0
VERTEX
  8
I-C2
  5
766
 10
410.958387
 20
290.027116
 30
-120.978569
 70
    64
  0
VERTEX
  8
I-C2
  5
767
 10
409.708387
 20
281.277116
 30
-118.813506
 70
    64
  0
VERTEX
  8
I-C2
  5
768
 10
408.458387
 20
272.527116
 30
-116.648442
 70
    64
  0
VERTEX
  8
I-C2
  5
769
 10
432.233741
 20
290.027116
 30
-106.081406
 70
    64
  0
VERTEX
  8
I-C2
  5
76A
 10
430.626772
 20
281.277116
 30
-104.166295
 70
    64
  0
VERTEX
  8
I-C2
  5
76B
 10
429.019803
 20
272.527116
 30
-102.251184
 70
    64
  0
VERTEX
  8
I-C2
  5
76C
 10
450.599009
 20
290.027116
 30
-87.716138
 70
    64
  0
VERTEX
  8
I-C2
  5
76D
 10
448.683898
 20
281.277116
 30
-86.109169
 70
    64
  0
VERTEX
  8
I-C2
  5
76E
 10
446.768787
 20
272.527116
 30
-84.5022
 70
    64
  0
VERTEX
  8
I-C2
  5
76F
 10
465.496172
 20
290.027116
 30
-66.440784
 70
    64
  0
VERTEX
  8
I-C2
  5
770
 10
463.331109
 20
281.277116
 30
-65.190784
 70
    64
  0
VERTEX
  8
I-C2
  5
771
 10
461.166045
 20
272.527116
 30
-63.940784
 70
    64
  0
VERTEX
  8
I-C2
  5
772
 10
476.472588
 20
290.027116
 30
-42.901786
 70
    64
  0
VERTEX
  8
I-C2
  5
773
 10
474.123356
 20
281.277116
 30
-42.046735
 70
    64
  0
VERTEX
  8
I-C2
  5
774
 10
471.774125
 20
272.527116
 30
-41.191685
 70
    64
  0
VERTEX
  8
I-C2
  5
775
 10
483.194742
 20
290.027116
 30
-17.814363
 70
    64
  0
VERTEX
  8
I-C2
  5
776
 10
480.732723
 20
281.277116
 30
-17.380242
 70
    64
  0
VERTEX
  8
I-C2
  5
777
 10
478.270704
 20
272.527116
 30
-16.946122
 70
    64
  0
VERTEX
  8
I-C2
  5
778
 10
485.458387
 20
290.027116
 30
8.059216
 70
    64
  0
VERTEX
  8
I-C2
  5
779
 10
482.958387
 20
281.277116
 30
8.059216
 70
    64
  0
VERTEX
  8
I-C2
  5
77A
 10
480.458387
 20
272.527116
 30
8.059216
 70
    64
  0
VERTEX
  8
I-C2
  5
77B
 10
483.194742
 20
290.027116
 30
33.932794
 70
    64
  0
VERTEX
  8
I-C2
  5
77C
 10
480.732723
 20
281.277116
 30
33.498674
 70
    64
  0
VERTEX
  8
I-C2
  5
77D
 10
478.270704
 20
272.527116
 30
33.064553
 70
    64
  0
VERTEX
  8
I-C2
  5
77E
 10
476.472588
 20
290.027116
 30
59.020217
 70
    64
  0
VERTEX
  8
I-C2
  5
77F
 10
474.123356
 20
281.277116
 30
58.165167
 70
    64
  0
VERTEX
  8
I-C2
  5
780
 10
471.774125
 20
272.527116
 30
57.310116
 70
    64
  0
VERTEX
  8
I-C2
  5
781
 10
465.496172
 20
290.027116
 30
82.559216
 70
    64
  0
VERTEX
  8
I-C2
  5
782
 10
463.331109
 20
281.277116
 30
81.309216
 70
    64
  0
VERTEX
  8
I-C2
  5
783
 10
461.166045
 20
272.527116
 30
80.059216
 70
    64
  0
VERTEX
  8
I-C2
  5
784
 10
450.599009
 20
290.027116
 30
103.83457
 70
    64
  0
VERTEX
  8
I-C2
  5
785
 10
448.683898
 20
281.277116
 30
102.227601
 70
    64
  0
VERTEX
  8
I-C2
  5
786
 10
446.768787
 20
272.527116
 30
100.620632
 70
    64
  0
VERTEX
  8
I-C2
  5
787
 10
432.233741
 20
290.027116
 30
122.199838
 70
    64
  0
VERTEX
  8
I-C2
  5
788
 10
430.626772
 20
281.277116
 30
120.284727
 70
    64
  0
VERTEX
  8
I-C2
  5
789
 10
429.019803
 20
272.527116
 30
118.369616
 70
    64
  0
VERTEX
  8
I-C2
  5
78A
 10
410.958387
 20
290.027116
 30
137.097001
 70
    64
  0
VERTEX
  8
I-C2
  5
78B
 10
409.708387
 20
281.277116
 30
134.931937
 70
    64
  0
VERTEX
  8
I-C2
  5
78C
 10
408.458387
 20
272.527116
 30
132.766874
 70
    64
  0
VERTEX
  8
I-C2
  5
78D
 10
387.419388
 20
290.027116
 30
148.073416
 70
    64
  0
VERTEX
  8
I-C2
  5
78E
 10
386.564338
 20
281.277116
 30
145.724185
 70
    64
  0
VERTEX
  8
I-C2
  5
78F
 10
385.709288
 20
272.527116
 30
143.374953
 70
    64
  0
VERTEX
  8
I-C2
  5
790
 10
362.331966
 20
290.027116
 30
154.795571
 70
    64
  0
VERTEX
  8
I-C2
  5
791
 10
361.897845
 20
281.277116
 30
152.333552
 70
    64
  0
VERTEX
  8
I-C2
  5
792
 10
361.463725
 20
272.527116
 30
149.871532
 70
    64
  0
VERTEX
  8
I-C2
  5
793
 10
336.458387
 20
290.027116
 30
157.059216
 70
    64
  0
VERTEX
  8
I-C2
  5
794
 10
336.458387
 20
281.277116
 30
154.559216
 70
    64
  0
VERTEX
  8
I-C2
  5
795
 10
336.458387
 20
272.527116
 30
152.059216
 70
    64
  0
VERTEX
  8
I-C2
  5
796
 10
310.584809
 20
290.027116
 30
154.795571
 70
    64
  0
VERTEX
  8
I-C2
  5
797
 10
311.018929
 20
281.277116
 30
152.333552
 70
    64
  0
VERTEX
  8
I-C2
  5
798
 10
311.45305
 20
272.527116
 30
149.871532
 70
    64
  0
VERTEX
  8
I-C2
  5
799
 10
285.497386
 20
290.027116
 30
148.073416
 70
    64
  0
VERTEX
  8
I-C2
  5
79A
 10
286.352436
 20
281.277116
 30
145.724185
 70
    64
  0
VERTEX
  8
I-C2
  5
79B
 10
287.207486
 20
272.527116
 30
143.374953
 70
    64
  0
VERTEX
  8
I-C2
  5
79C
 10
261.958387
 20
290.027116
 30
137.097001
 70
    64
  0
VERTEX
  8
I-C2
  5
79D
 10
263.208387
 20
281.277116
 30
134.931937
 70
    64
  0
VERTEX
  8
I-C2
  5
79E
 10
264.458387
 20
272.527116
 30
132.766874
 70
    64
  0
VERTEX
  8
I-C2
  5
79F
 10
240.683033
 20
290.027116
 30
122.199838
 70
    64
  0
VERTEX
  8
I-C2
  5
7A0
 10
242.290002
 20
281.277116
 30
120.284727
 70
    64
  0
VERTEX
  8
I-C2
  5
7A1
 10
243.896971
 20
272.527116
 30
118.369616
 70
    64
  0
VERTEX
  8
I-C2
  5
7A2
 10
222.317765
 20
290.027116
 30
103.83457
 70
    64
  0
VERTEX
  8
I-C2
  5
7A3
 10
224.232876
 20
281.277116
 30
102.227601
 70
    64
  0
VERTEX
  8
I-C2
  5
7A4
 10
226.147987
 20
272.527116
 30
100.620632
 70
    64
  0
VERTEX
  8
I-C2
  5
7A5
 10
207.420602
 20
290.027116
 30
82.559216
 70
    64
  0
VERTEX
  8
I-C2
  5
7A6
 10
209.585665
 20
281.277116
 30
81.309216
 70
    64
  0
VERTEX
  8
I-C2
  5
7A7
 10
211.750729
 20
272.527116
 30
80.059216
 70
    64
  0
VERTEX
  8
I-C2
  5
7A8
 10
196.444187
 20
290.027116
 30
59.020217
 70
    64
  0
VERTEX
  8
I-C2
  5
7A9
 10
198.793418
 20
281.277116
 30
58.165167
 70
    64
  0
VERTEX
  8
I-C2
  5
7AA
 10
201.14265
 20
272.527116
 30
57.310116
 70
    64
  0
VERTEX
  8
I-C2
  5
7AB
 10
189.722032
 20
290.027116
 30
33.932794
 70
    64
  0
VERTEX
  8
I-C2
  5
7AC
 10
192.184051
 20
281.277116
 30
33.498674
 70
    64
  0
VERTEX
  8
I-C2
  5
7AD
 10
194.646071
 20
272.527116
 30
33.064553
 70
    64
  0
VERTEX
  8
I-C2
  5
7AE
 10
187.458387
 20
290.027116
 30
8.059216
 70
    64
  0
VERTEX
  8
I-C2
  5
7AF
 10
189.958387
 20
281.277116
 30
8.059216
 70
    64
  0
VERTEX
  8
I-C2
  5
7B0
 10
192.458387
 20
272.527116
 30
8.059216
 70
    64
  0
VERTEX
  8
I-C2
  5
7B1
 10
189.722032
 20
290.027116
 30
-17.814363
 70
    64
  0
VERTEX
  8
I-C2
  5
7B2
 10
192.184051
 20
281.277116
 30
-17.380242
 70
    64
  0
VERTEX
  8
I-C2
  5
7B3
 10
194.646071
 20
272.527116
 30
-16.946122
 70
    64
  0
VERTEX
  8
I-C2
  5
7B4
 10
196.444187
 20
290.027116
 30
-42.901786
 70
    64
  0
VERTEX
  8
I-C2
  5
7B5
 10
198.793418
 20
281.277116
 30
-42.046735
 70
    64
  0
VERTEX
  8
I-C2
  5
7B6
 10
201.14265
 20
272.527116
 30
-41.191685
 70
    64
  0
VERTEX
  8
I-C2
  5
7B7
 10
207.420602
 20
290.027116
 30
-66.440784
 70
    64
  0
VERTEX
  8
I-C2
  5
7B8
 10
209.585665
 20
281.277116
 30
-65.190784
 70
    64
  0
VERTEX
  8
I-C2
  5
7B9
 10
211.750729
 20
272.527116
 30
-63.940784
 70
    64
  0
VERTEX
  8
I-C2
  5
7BA
 10
222.317765
 20
290.027116
 30
-87.716138
 70
    64
  0
VERTEX
  8
I-C2
  5
7BB
 10
224.232876
 20
281.277116
 30
-86.109169
 70
    64
  0
VERTEX
  8
I-C2
  5
7BC
 10
226.147987
 20
272.527116
 30
-84.5022
 70
    64
  0
VERTEX
  8
I-C2
  5
7BD
 10
240.683033
 20
290.027116
 30
-106.081406
 70
    64
  0
VERTEX
  8
I-C2
  5
7BE
 10
242.290002
 20
281.277116
 30
-104.166295
 70
    64
  0
VERTEX
  8
I-C2
  5
7BF
 10
243.896971
 20
272.527116
 30
-102.251184
 70
    64
  0
VERTEX
  8
I-C2
  5
7C0
 10
261.958387
 20
290.027116
 30
-120.978569
 70
    64
  0
VERTEX
  8
I-C2
  5
7C1
 10
263.208387
 20
281.277116
 30
-118.813506
 70
    64
  0
VERTEX
  8
I-C2
  5
7C2
 10
264.458387
 20
272.527116
 30
-116.648442
 70
    64
  0
VERTEX
  8
I-C2
  5
7C3
 10
285.497386
 20
290.027116
 30
-131.954985
 70
    64
  0
VERTEX
  8
I-C2
  5
7C4
 10
286.352436
 20
281.277116
 30
-129.605753
 70
    64
  0
VERTEX
  8
I-C2
  5
7C5
 10
287.207486
 20
272.527116
 30
-127.256522
 70
    64
  0
VERTEX
  8
I-C2
  5
7C6
 10
310.584809
 20
290.027116
 30
-138.677139
 70
    64
  0
VERTEX
  8
I-C2
  5
7C7
 10
311.018929
 20
281.277116
 30
-136.21512
 70
    64
  0
VERTEX
  8
I-C2
  5
7C8
 10
311.45305
 20
272.527116
 30
-133.753101
 70
    64
  0
SEQEND
  8
I-C2
  5
7C9
  0
ENDSEC
  0
EOF
